All Apologies | Nirvana TAB

Tuning: 1/2 omlaag stemmen.
INTRO/VERSE TYPE 1:
eb|---------------------------|---------------------------|
Bb|---------------------------|--------------3--3--1--0---|
Gb|--------0-----2--2--0------|---------0-----------------|
Db|--4--4-----4--0---------4--|--0---0-----0--------------|
Ab|---------------------------|---------------------------|
Db|---------------------------|---------------------------|

eb|---------------------------|----------------2--2--0----|
Bb|---------------------------|------------------------3--|
Gb|--------0-----2--2--0------|---------0-----------------|
Db|-0--4------0--0--------4---|--0---0-----0--------------|
Ab|---------------------------|---------------------------|
Db|---------------------------|---------------------------|


INTRO/VERSE TYPE 2:
eb|-------------------------------|----------------------------------|
Bb|-------------------------------|----------------------------------|
Gb|-------------------------------|----------------------------------|
Db|-------------------------------|--------------10/12--12--10--9----|
Ab|-9--9--10--9--10/12--12--10--9-|-9--9--10--9----------------------|
Db|-------------------------------|----------------------------------|

eb|-------------------------------|----------------------------------|
Bb|-------------------------------|----------------------------------|
Gb|-------------------------------|---------------11--11--9----------|
Db|-------------------------------|--------------------------12------|
Ab|-9--9--10--9--10/12--12--10--9-|-9--9--10--9----------------------|
Db|-------------------------------|----------------------------------|



-----------------------------------------------------------------------------
			            DE TAB
-----------------------------------------------------------------------------
De timing van de tekst bij de tab klopt niet helemaal, maar dit kun je
makkelijk uit de video afleiden. Mocht je een foutje zien plaats dan
een reactie onder de tab, dan zouden we het kunnen aanpassen. 


Intro:
eb|-------------------------------|----------------------------------|
Bb|-------------------------------|----------------------------------|
Gb|-------------------------------|----------------------------------|
Db|-------------------------------|--------------10/12--12--10--9----|
Ab|-9--9--10--9--10/12--12--10--9-|-9--9--10--9----------------------|
Db|-------------------------------|----------------------------------|

eb|-------------------------------|----------------------------------|
Bb|-------------------------------|----------------------------------|
Gb|-------------------------------|---------------11--11--9----------|
Db|-------------------------------|--------------------------12------|
Ab|-9--9--10--9--10/12--12--10--9-|-9--9--10--9----------------------|
Db|-------------------------------|----------------------------------|

eb|-------------------------------|----------------------------------|
Bb|-------------------------------|----------------------------------|
Gb|-------------------------------|----------------------------------|
Db|-------------------------------|--------------10/12--12--10--9----|
Ab|-9--9--10--9--10/12--12--10--9-|-9--9--10--9----------------------|
Db|-------------------------------|----------------------------------|

eb|-------------------------------|----------------------------------|
Bb|-------------------------------|----------------------------------|
Gb|-------------------------------|---------------11--11--9----------|
Db|-------------------------------|--------------------------12------|
Ab|-9--9--10--9--10/12--12--10--9-|-9--9--10--9----------------------|
Db|-------------------------------|----------------------------------|




VERSE 1:
    What  else   should   i    be?
eb|-------------------------------|----------------------------------|
Bb|-------------------------------|----------------------------------|
Gb|-------------------------------|----------------------------------|
Db|-------------------------------|--------------10/12--12--10--9----|
Ab|-9--9--10--9--10/12--12--10--9-|-9--9--10--9----------------------|
Db|-------------------------------|----------------------------------|
    All______    Apologies___
eb|-------------------------------|----------------------------------|
Bb|-------------------------------|----------------------------------|
Gb|-------------------------------|---------------11--11--9----------|
Db|-------------------------------|--------------------------12------|
Ab|-9--9--10--9--10/12--12--10--9-|-9--9--10--9----------------------|
Db|-------------------------------|----------------------------------|
    What  else    should  I  say?
eb|-------------------------------|----------------------------------|
Bb|-------------------------------|----------------------------------|
Gb|-------------------------------|----------------------------------|
Db|-------------------------------|--------------10/12--12--10--9----|
Ab|-9--9--10--9--10/12--12--10--9-|-9--9--10--9----------------------|
Db|-------------------------------|----------------------------------|
    Everyone_   is       gay__
eb|-------------------------------|----------------------------------|
Bb|-------------------------------|----------------------------------|
Gb|-------------------------------|---------------11--11--9----------|
Db|-------------------------------|--------------------------12------|
Ab|-9--9--10--9--10/12--12--10--9-|-9--9--10--9----------------------|
Db|-------------------------------|----------------------------------|
    What else    should I write?
eb|-------------------------------|----------------------------------|
Bb|-------------------------------|----------------------------------|
Gb|-------------------------------|----------------------------------|
Db|-------------------------------|--------------10/12--12--10--9----|
Ab|-9--9--10--9--10/12--12--10--9-|-9--9--10--9----------------------|
Db|-------------------------------|----------------------------------|
    I don't__    have the right____
eb|-------------------------------|----------------------------------|
Bb|-------------------------------|----------------------------------|
Gb|-------------------------------|---------------11--11--9----------|
Db|-------------------------------|--------------------------12------|
Ab|-9--9--10--9--10/12--12--10--9-|-9--9--10--9----------------------|
Db|-------------------------------|----------------------------------|
    What  else   should  I  be?
eb|-------------------------------|----------------------------------|
Bb|-------------------------------|----------------------------------|
Gb|-------------------------------|----------------------------------|
Db|-------------------------------|--------------10/12--12--10--9----|
Ab|-9--9--10--9--10/12--12--10--9-|-9--9--10--9----------------------|
Db|-------------------------------|----------------------------------|
    A__l__l______        Apo__log__ies_______
eb|-------------------------------|--------------------------------------|
Bb|-------------------------------|--------------------------------------|
Gb|-------------------------------|---------------11--11--9--------------|
Db|-------------------------------|--------------------------12--5-5-5-5-|
Ab|-9--9--10--9--10/12--12--10--9-|-9--9--10--9------------------5-5-5-5-|
Db|-------------------------------|------------------------------5-5-5-5-|



CHORUS (Als je gitaar 1/2 omlaag is gestemd dan kun je in het chorus 355xxx gebruiken):
   G 
            In the sun___         in the sun   I feel as one
eb|--------------------------------------------------------------|-
Bb|--------------------------------------------------------------|-
Gb|--------------------------------------------------------------|-
Db|-5-5-5-x--5-5-5-5--------5-5-5-x--5-5-5-5--5-5-5--5-5-5-5-----|-
Ab|-5-5-5-x--5-5-5-5--------5-5-5-x--5-5-5-5--5-5-5--5-5-5-5-----|-
Db|-5-5-5-x--5-5-5-5--------5-5-5-x--5-5-5-5--5-5-5--5-5-5-5-----|-

            In the sun_____,        In the sun__________
eb|--------------------------------------------------------------|-
Bb|--------------------------------------------------------------|-
Gb|--------------------------------------------------------------|-
Db|-5-5-5---5-5-5-5--------5-5-5---5-5-5-5----5-5--5-5-5-5-------|-
Ab|-5-5-5---5-5-5-5--------5-5-5---5-5-5-5----5-5--5-5-5-5-------|-
Db|-5-5-5---5-5-5-5--------5-5-5---5-5-5-5----5-5--5-5-5-5-------|-


BRIDGE (Het is belangrijk dat je hier de pauzes goed doet,
        het zou kunnen dat er een paar nootjes niet kloppen):
   A
   Married___               Buried___
eb|-0---------------------|-0--------------------------|-
Bb|-2----2-------2-----2--|-2---2---2------------------|-
Gb|-2----2-------2-----2--|-2---2----------------------|-
Db|-2---------0-----------|-2----------2----2----------|-
Ab|-0---------0------0----|-0---------------0---0----0-|-
Eb|-----------------------|----------------------------|-



VERSE 1:
    I wish    I   was  like  you
eb|-------------------------------|----------------------------------|
Bb|-------------------------------|----------------------------------|
Gb|-------------------------------|----------------------------------|
Db|-------------------------------|--------------10/12--12--10--9----|
Ab|-9--9--10--9--10/12--12--10--9-|-9--9--10--9----------------------|
Db|-------------------------------|----------------------------------|
    E__asily__    amused_______
eb|-------------------------------|----------------------------------|
Bb|-------------------------------|----------------------------------|
Gb|-------------------------------|---------------11--11--9----------|
Db|-------------------------------|--------------------------12------|
Ab|-9--9--10--9--10/12--12--10--9-|-9--9--10--9----------------------|
Db|-------------------------------|----------------------------------|
    Find my   nest   of   salt
eb|-------------------------------|----------------------------------|
Bb|-------------------------------|----------------------------------|
Gb|-------------------------------|----------------------------------|
Db|-------------------------------|--------------10/12--12--10--9----|
Ab|-9--9--10--9--10/12--12--10--9-|-9--9--10--9----------------------|
Db|-------------------------------|----------------------------------|
    Everythings_   my   falut__
eb|-------------------------------|----------------------------------|
Bb|-------------------------------|----------------------------------|
Gb|-------------------------------|---------------11--11--9----------|
Db|-------------------------------|--------------------------12------|
Ab|-9--9--10--9--10/12--12--10--9-|-9--9--10--9----------------------|
Db|-------------------------------|----------------------------------|
    I'll  take  all  the  blame
eb|-------------------------------|----------------------------------|
Bb|-------------------------------|----------------------------------|
Gb|-------------------------------|----------------------------------|
Db|-------------------------------|--------------10/12--12--10--9----|
Ab|-9--9--10--9--10/12--12--10--9-|-9--9--10--9----------------------|
Db|-------------------------------|----------------------------------|
    Aqua__ seafoam__   shame___
eb|-------------------------------|----------------------------------|
Bb|-------------------------------|----------------------------------|
Gb|-------------------------------|---------------11--11--9----------|
Db|-------------------------------|--------------------------12------|
Ab|-9--9--10--9--10/12--12--10--9-|-9--9--10--9----------------------|
Db|-------------------------------|----------------------------------|
    Sunburn_  the  freezer  burn_
eb|-------------------------------|----------------------------------|
Bb|-------------------------------|----------------------------------|
Gb|-------------------------------|----------------------------------|
Db|-------------------------------|--------------10/12--12--10--9----|
Ab|-9--9--10--9--10/12--12--10--9-|-9--9--10--9----------------------|
Db|-------------------------------|----------------------------------|
   Cho___king   on   the   a_shes   of    her    enemies______
eb|-------------------------------|--------------------------------------|
Bb|-------------------------------|--------------------------------------|
Gb|-------------------------------|---------------11--11--9--------------|
Db|-------------------------------|--------------------------12----------|
Ab|-9--9--10--9--10/12--12--10--9-|-9--9--10--9--------------------------|
Db|-------------------------------|--------------------------------------|


CHORUS (Gebruik of 555xxx Of 355xxx):
   G 
            In the sun___         in the sun   I feel as one
eb|--------------------------------------------------------------|-
Bb|--------------------------------------------------------------|-
Gb|--------------------------------------------------------------|-
Db|-5-5-5-x--5-5-5-5--------5-5-5-x--5-5-5-5--5-5-5--5-5-5-5-----|-
Ab|-5-5-5-x--5-5-5-5--------5-5-5-x--5-5-5-5--5-5-5--5-5-5-5-----|-
Db|-5-5-5-x--5-5-5-5--------5-5-5-x--5-5-5-5--5-5-5--5-5-5-5-----|-

            In the sun_____,        In the sun__________
eb|--------------------------------------------------------------|-
Bb|--------------------------------------------------------------|-
Gb|--------------------------------------------------------------|-
Db|-5-5-5---5-5-5-5--------5-5-5---5-5-5-5----5-5--5-5-5-5-------|-
Ab|-5-5-5---5-5-5-5--------5-5-5---5-5-5-5----5-5--5-5-5-5-------|-
Db|-5-5-5---5-5-5-5--------5-5-5---5-5-5-5----5-5--5-5-5-5-------|-



BRIDGE
   A  
   Married___                     Buried___            Married__
eb|-0---------------------------|-0---------------------0--------------|-
Bb|-2-------------2------------2|-2--2----2-------------2--------------|-
Gb|-2----2----2---2----2-------2|-2--2----2-------2-----2---------2--2-|-
Db|-2-----------0------2-2---2--|-2------------2--2-----2-------2----2-|-
Ab|-0------0---------------0----|-0----------0----------0--0--0--------|-
Eb|-----------------------------|--------------------------------------|-

    Buried
eb|-0---------------0--0-0-0---0-0-0---0---0---0-----------|-
Bb|-2----2-----2----2--2-2-2---2-2-2---2---2---2-----------|-
Gb|-2----2---2-2----2--2-2-2---2-2-2---2---2---2-----------|-
Db|-2--------2------2--2-2-2---2-2-2---2---2---2-----------|-
Ab|-0---------------0--0-0-0---0-0-0---0---0---0-----------|-
Eb|--------------------------------------------------------|-


OUTRO:

eb|-------------------------------|----------------------------------|
Bb|-------------------------------|----------------------------------|
Gb|-------------------------------|----------------------------------|
Db|-------------------------------|--------------10/12--12--10--9----|
Ab|-9--9--10--9--10/12--12--10--9-|-9--9--10--9----------------------|
Db|-------------------------------|----------------------------------|

eb|-------------------------------|----------------------------------|
Bb|-------------------------------|----------------------------------|
Gb|-------------------------------|---------------11--11--9----------|
Db|-------------------------------|--------------------------12------|
Ab|-9--9--10--9--10/12--12--10--9-|-9--9--10--9----------------------|
Db|-------------------------------|----------------------------------|




      All    in    all    is    all    we   all    are
eb|-------------------------------|----------------------------------|
Bb|-------------------------------|----------------------------------|
Gb|-------------------------------|----------------------------------|
Db|-------------------------------|--------------10/12--12--10--9----|
Ab|-9--9--10--9--10/12--12--10--9-|-9--9--10--9----------------------|
Db|-------------------------------|----------------------------------|
      All    in    all    is    all    we   all    are
eb|-------------------------------|----------------------------------|
Bb|-------------------------------|----------------------------------|
Gb|-------------------------------|---------------11--11--9----------|
Db|-------------------------------|--------------------------12------|
Ab|-9--9--10--9--10/12--12--10--9-|-9--9--10--9----------------------|
Db|-------------------------------|----------------------------------|


      All    in    all    is    all    we   all    are
eb|-------------------------------|----------------------------------|
Bb|-------------------------------|----------------------------------|
Gb|-------------------------------|----------------------------------|
Db|-------------------------------|--------------10/12--12--10--9----|
Ab|-9--9--10--9--10/12--12--10--9-|-9--9--10--9----------------------|
Db|-------------------------------|----------------------------------|
      All    in    all    is    all    we   all    are
eb|-------------------------------|----------------------------------|
Bb|-------------------------------|----------------------------------|
Gb|-------------------------------|---------------11--11--9----------|
Db|-------------------------------|--------------------------12------|
Ab|-9--9--10--9--10/12--12--10--9-|-9--9--10--9----------------------|
Db|-------------------------------|----------------------------------|


      All    in    all    is    all    we   all    are
eb|-------------------------------|----------------------------------|
Bb|-------------------------------|----------------------------------|
Gb|-------------------------------|----------------------------------|
Db|-------------------------------|--------------10/12--12--10--9----|
Ab|-9--9--10--9--10/12--12--10--9-|-9--9--10--9----------------------|
Db|-------------------------------|----------------------------------|
      All    in    all    is    all    we   all    are
eb|-------------------------------|----------------------------------|
Bb|-------------------------------|----------------------------------|
Gb|-------------------------------|---------------11--11--9----------|
Db|-------------------------------|--------------------------12------|
Ab|-9--9--10--9--10/12--12--10--9-|-9--9--10--9----------------------|
Db|-------------------------------|----------------------------------|


    All  in  all  is  all  we all  are
eb|------------------------------------|
Bb|------------------------------------|
Gb|------------------------------------|
Db|------------------------------------|
Ab|-9-------9----9----------9--9--9----|
Db|-0---0---0----0---0---0--0-----0----|

     
   All in all is all we all are     All in all is all we all are
eb|-------------------------------|-------------------------------|
Bb|-------------------------------|-------------------------------|
Gb|-------------------------------|-------------------------------|
Db|-------------------------------|-------------------------------|
Ab|-9-----9-------9-----9-------9-|-------9-----9-9-9-9--9--------|
Db|-0--0-----0--0----0-----0--0---|-0--0-----0-----------0--0-----|



   All in all is all we all are     All in all is all we all are
eb|-------------------------------|-------------------------------|
Bb|-------------------------------|-------------------------------|
Gb|-------------------------------|-------------------------------|
Db|-------------------------------|-------------------------------|
Ab|-------9-----9-------------9---|-------------------------------|
Db|-0--0-----0-----0--------0-----|-0-----------------------------|


   All in all is all we all are     All in all is all we are
eb|-------------------------------|-------------------------------|
Bb|-------------------------------|-------------------------------|
Gb|-------------------------------|-------------------------------|
Db|-------------------------------|-------------------------------|
Ab|-------------------------------|-------------------------------|
Db|-------------------------------|-------------------------------|


    All in all is all we all are_____
eb|-----------------------------------|
Bb|-----------------------------------|
Gb|-----------------------------------|
Db|-----------------------------------|
Ab|-----------------------------------|
Db|-----------------------------------|
Meer leuke liedjes

Laat een reactie achter

Je e-mailadres wordt niet gepubliceerd.