All the Right moves

Intro/Verse/Chorus/ gitaar and keys
Basic chords

Let ring for Intro/Chorus, play each 8 times for Chorus
Am G C F
e|-----3-------1-|
B|-1---3---1---1-|
G|-2---0---0---2-|
D|-2---0---2---3-|
A|-0---2---3---3-|
E|-----3-------1-|

Or can play this way
e|-----3---------------3-------1-|
B|-1---3---1-------1---3---1---1-|
G|-2---0---0---2---2---0---0---2-|
D|-2---0---2---3---2---0---2---3-|
A|-0---2---3---3---0---2---3-----|
E|-----3-------1-------3---------|

Cello in verse 1 (0.40 - 0.50)
e|-------------------------0------------------------------------0-|
B|-------1------------------------1-----------1-------------------|
G|----------------0-----------------------------------0-----------|
D|----2-----------------2------------------2-----------------2----|
A|--0----------2------3---------3--------0----------2------3------|
E|-----------3----------------1-------------------3---------------|

Cello in verse 2 (1.32 - 1.43)
e|-----------------------------|
B|-10---8----------------------|
G|----------7-9-----10-9--7--5-|
D|---------------7-------------|
A|-----------------------------|
E|-----------------------------|
Meer leuke liedjes

Laat een reactie achter

Je e-mailadres wordt niet gepubliceerd.