Baantjer (Intro)

e|-------5--7--8-------5--7--8--------5--7--8--7--5------
B|----5-------------6---------------7--------------------
G|--------------------------------8----------------------
D|-------------------------------------------------------
A|-------------------------------------------------------
E|-------------------------------------------------------

e|------10--12--13--12--15--13--12--11--12---------------
B|--10---------------------------------------------------
G|-------------------------------------------------------
D|-------------------------------------------------------
A|-------------------------------------------------------
E|-------------------------------------------------------
Meer leuke liedjes

Laat een reactie achter

Je e-mailadres wordt niet gepubliceerd.