Beautiful

 

Capo op 1

Intro:
E|---3-----3-----3-----3-----3-----3-----3-----3-----3-----3-----3-----3--|
A|---3-----3-----3-----3-----3-----3-----3-----3-----3-----3-----3-----3--|
D|---0-----0-----0-----0-----0-----0-----0-----0-----0-----0-----0-----0--|
G|------------------------------------------------------------------------|
B|------------------------------------2-----2-----3-----3-----3-----3-----|
E|-3----3-----2-----2-----0-----0-----------------------------------------|

------2-----2-----2-----2---|
------3-----3-----3-----3---|
------2-----2-----2-----2---|
---0-----0-----0-----0------|
----------------------------|
----------------------------|
Verse:
-----3-----3-----3-----3-----3-----3-----3-----3-----3-----3-----3-----3--|
-----3-----3-----3-----3-----3-----3-----3-----3-----3-----3-----3-----3--|
-----0-----0-----0-----0-----0-----0-----0-----0-----0-----0-----0-----0--|
--------------------------------------------------------------------------|
--------------------------------------2-----2-----3-----3-----3-----3-----|
---3----3-----2-----2-----0-----0-----------------------------------------|
I know, I know it’s been a while I wonder where you are……………
------2-----2-----2-----2---|
------3-----3-----3-----3---|
------2-----2-----2-----2---|
---0-----0-----0-----0------|
----------------------------|
----------------------------|
And if you think of me

-----3-----3-----3-----3-----3-----3-----3-----3-----3-----3-----3-----3--|
-----3-----3-----3-----3-----3-----3-----3-----3-----3-----3-----3-----3--|
-----0-----0-----0-----0-----0-----0-----0-----0-----0-----0-----0-----0--|
--------------------------------------------------------------------------|
--------------------------------------2-----2-----3-----3-----3-----3-----|
---3----3-----2-----2-----0-----0-----------------------------------------|
Sometimes, cause you’re always on my mind you know I had it rough, tryin
------2-----2-----2-----2---|
------3-----3-----3-----3---|
------2-----2-----2-----2---|
---0-----0-----0-----0------|
----------------------------|
----------------------------|
to forget you but

-----3-----3-----3-----3-----3-----3-----3-----3-----3-----3-----3-----3--|
-----3-----3-----3-----3-----3-----3-----3-----3-----3-----3-----3-----3--|
-----0-----0-----0-----0-----0-----0-----0-----0-----0-----0-----0-----0--|
--------------------------------------------------------------------------|
--------------------------------------2-----2-----3-----3-----3-----3-----|
---0----0-----2-----2-----3-----3-----------------------------------------|
The more that I look around, the more I realize….. You’re

------2-----2-----2---|
------3-----3-----3---|
------2-----2-----2---|
---0-----0------------|
----------------------|
----------------------|
all I’m looking for

Chorus:
-----3-----3-----3-----3-----3-----3-----3-----3-----3-----3-----3-----3--|
-----3-----3-----3-----3-----3-----3-----3-----3-----3-----3-----3-----3--|
-----0-----0-----0-----0-----0-----0-----0-----0-----0-----0-----0-----0--|
--------------------------------------------------------------------------|
--------------------------------------2-----2-----3-----3-----3-----3-----|
---3----3-----2-----2-----0-----0-----------------------------------------|
What makes you so beautiful you don’t know how beautiful you are..

------2-----2-----2-----2---|
------3-----3-----3-----3---|
------2-----2-----2-----2---|
---0-----0-----0-----0------|
----------------------------|
----------------------------|

to me..

-----3-----3-----3-----3-----3-----3-----3-----3-----3-----3-----3-----3--|
-----3-----3-----3-----3-----3-----3-----3-----3-----3-----3-----3-----3--|
-----0-----0-----0-----0-----0-----0-----0-----0-----0-----0-----0-----0--|
--------------------------------------------------------------------------|
--------------------------------------2-----2-----3-----3-----3-----3-----|
---3----3-----2-----2-----0-----0-----------------------------------------|
You’re not trying to be perfect nobody’s perfect but you are..

------2-----2-----2-----2---|
------3-----3-----3-----3---|
------2-----2-----2-----2---|
---0-----0-----0-----0------|
----------------------------|
----------------------------|

to me..

-----3-----3-----3-----3-----3-----3-----3-----3-----3-----3-----3-----3--|
-----3-----3-----3-----3-----3-----3-----3-----3-----3-----3-----3-----3--|
-----0-----0-----0-----0-----0-----0-----0-----0-----0-----0-----0-----0--|
--------------------------------------------------------------------------|
--------------------------------------2-----2-----3-----3-----3-----3-----|
---0----0-----2-----2-----3-----3-----------------------------------------|
It’s how you take my breath away feel the words that I don’t say..

------2-----2-----2---|
------3-----3-----3---|
------2-----2-----2---|
---0-----0------------|
----------------------|
----------------------|
I wish somehow.. I could say them now

-----3-----3-----3-----3-----3-----3-----3-----3-----3-----3-----3-----3--|
-----3-----3-----3-----3-----3-----3-----3-----3-----3-----3-----3-----3--|
-----0-----0-----0-----0-----0-----0-----0-----0-----0-----0-----0-----0--|
--------------------------------------------------------------------------|
--------------------------------------2-----2-----3-----3-----3-----3-----|
---3----3-----2-----2-----0-----0-----------------------------------------|
Oh, oh, I could say them now, yeah

------2-----2-----2-----2---|
------3-----3-----3-----3---|
------2-----2-----2-----2---|
---0-----0-----0-----0------|
----------------------------|
----------------------------|
Do the same pattern as above until the end

Verse 2:
Just friends, the beginning or the end?
How do we make sense
When we’re our own
It’s like you’re the other half of me
I feel incomplete, I should’ve known
Nothing in the world compares to the feelings that we share
So not fair
Chorus:
What makes you so beautiful, you don’t know how beautiful you are to me
You’re not trying to be perfect nobody’s perfect but you are to me
It’s how you take my breath away
Feel the words that I don’t say
I wish somehow, I could say them now
Oh, oh, I could say them now
Meer leuke liedjes

Laat een reactie achter

Je e-mailadres wordt niet gepubliceerd.