Beauty And The Beast – Tale As Old As Time Tab

  

Capo op 3

[Verse] 
   G             C               G                   D
e|---------------------------------------------------------------------------|
B|---------------------1-0--------------------------------0---0-1-3----------|
G|------------0-----------2-0---------------------0--2-------2---------------|
D|-----0-4--------------------0-----------0---4------------------------------|
A|-2--------------3--------------------2-------------------------------------|
E|---------------------------------------------------------------------------|
  Tale as old as time    (echo)       True as it can be    (echo)
 
  G           Em                   C                D
e|---------------------------------------------------------------------------|
B|-------0-1--3----------3---1-0-------------1-0-----------------------------|
G|-0--2--------------------------2--0------------2-0-------------------------|
D|----------------------------------------------------0----------------------|
A|---------------------------------------------------------------------------|
E|---------------------------------------------------------------------------|
  Barely even friends, Then somebody bends, Unexpectedly

   G             C               G                   D
e|---------------------------------------------------------------------------|
B|---------------------1-0---------------------------------------------------|
G|----------0--------------2-0---------------------0----2--------------------|
D|-----0-4---------------------0-----------0---4-----------------------------|
A|-2--------------3--------------------2-------------------------------------|
E|---------------------------------------------------------------------------|
  Just a little change (echo)       Small to say the least  
 
                Em                       C      D             G
e|---------------------------------------------------------------------------|
B|-0------0-3------------------------0----------0--1--------0----------------|
G|----2---------0---------0------0---------------------2-------0-------------|
D|----------------------------4----------2-----------------------------------|
A|---------------------------------------------------------------------------|
E|---------------------------------------------------------------------------|
  Both a little scared,  Neither one prepared, Beauty and the beast

[Chorus]
                 D     C                    D           C
e|-----------------------------------------0---------------------------------|
B|------0----1---3---------------------0------3------------------------------|
G|-0-2----------------------------0-2----------------------------------------|
D|---------------------------------------------------------------------------|
A|---------------------------------------------------------------------------|
E|---------------------------------------------------------------------------|
   Ever just the same,            Ever a surprise, 
  
               Em                             C                           D
e|---------------------------------------------------------------------------|
B|------0----1---3-------------3-1--0--------------------------0-------------|
G|-0-2-----------------------------------2--0----------0--2--------0----2----|
D|---------------------------------------------------------------------------|
A|---------------------------------------------------------------------------|
E|---------------------------------------------------------------------------|
  Ever as before,              Ever just as sure,      As the sun will rise

[Verse 2]

   G             C               G                   D
e|---------------------------------------------------------------------------|
B|---------------------1-0------------------------------------0---0-1--3-----|
G|------------0-----------2-0---------------------0--2----------2------------|
D|-----0-4--------------------0-----------0---4------------------------------|
A|-2--------------3--------------------2-------------------------------------|
E|---------------------------------------------------------------------------|
  Tale as old as time    (echo)       Tune as old as song  (echo)

  G           Em                   C                   D
e|---------------------------------------------------------------------------|
B|-------0-1--3----------3---1-0-------------------1-0-----------------------|
G|-0--2--------------------------2--0----------------------2-0---------------|
D|-----------------------------------------------------------------0---------|
A|---------------------------------------------------------------------------|
E|---------------------------------------------------------------------------|
  Bittersweet as strange, Finding you can change Learning you were wrong

   G             C               G                   D                      
e|---------------------------------------------------------------------------|
B|---------------------1-0---------------------------------------------------|
G|------------0-----------2-0---------------------0--2-----------------------|
D|-----0-4--------------------0-----------0---4------------------------------|
A|-2--------------3--------------------2-------------------------------------|
E|---------------------------------------------------------------------------|
  Certain as the sun   (echo)         Rising  in the east                     


                Em                       C                   G
e|---------------------------------------------------------------------------|
B|-0------0-3------------------------0----------0--1--------0----------------|
G|----2---------0---------0------0---------------------2-------0-------------|
D|----------------------------4----------2-----------------------------------|
A|---------------------------------------------------------------------------|
E|---------------------------------------------------------------------------|
  Tale as old as time,  Song as old as rhyme, Beauty and the beast

                Em                       C                   G
e|---------------------------------------------------------------------------|
B|-0------0-3------------------------0----------0--1--------0----------------|
G|----2---------0---------0------0---------------------2-------0-------------|
D|----------------------------4----------2-----------------------------------|
A|---------------------------------------------------------------------------|
E|---------------------------------------------------------------------------|
  Tale as old as time,  Song as old as rhyme, Beauty and the beast

Plaats een reactie