Can’t stop

Deze tab is best makkelijk om te spelen. 
Na een aantal keren oefenen heb je het al onder de knie.

<!---------------------------------------------------------------------------
-|---------------------------------------------------------------------------
-|------7--9---------7--9------------7--9---------7--9-----------------------
-|---------------------------------------------------------------------------
-|-7-7--------7-7-7--------7-7-7--5--------5-5-5-------5-5-5-----------------
-|---------------------------------------------------------------------------


-|---------------------------------------------------------------------------
-|---------------------------------------------------------------------------
-|----7--9---------7--9------------7--9--------7--9--------------------------
-|---------------------------------------------------------------------------
-|---------------------------------------------------------------------------
-|-7--------7-7-7--------7-7-7--8-------8-8-8--------8-8-8-------------------
Meer leuke liedjes

Laat een reactie achter

Je e-mailadres wordt niet gepubliceerd.