‘Kinderliedjes’ Categorie

Pagina 4 van 512345

Poesje mauw

  

Leer poesje mauw op je gitaar spelen. Makkelijk en leuk kinderliedje 
vooral goed om te spelen als beginnende gitarist.

A x02220
E 022100
E7 020100


A E A E7
Poesje Mauw Kom eens gauw Ik heb lekk're mel-lek voor jou
e|---------5----------------0-----------------------------------------------|
B|--5---5----------2---2------------------0----0--2---3---2----0------------|
G|---------------------------------2--2-------------------------------------|
D|--------------------------------------------------------------------------|
A|--------------------------------------------------------------------------|
E|--------------------------------------------------------------------------|

A E7 A
En voor mij rijstebrij ooh wat heerlijk smullen wij
e|---------5-----------0-------5-4-2---0------------------------------------|
B|-5--5----------2---2----------------------3---2---0-----------------------|
G|------------------------------------------------------2-------------------|
D|--------------------------------------------------------------------------|
A|--------------------------------------------------------------------------|
E|--------------------------------------------------------------------------|


Hondje waf, waf waf waf.
Blijf eens van mijn melkje af.
Kom eens hier, aardig dier.
Samen hebben wij plezier.

My bonnie is over the ocean

  

 C                    D7           G
Oh bring back my Bonnie to me, to me.
 
                        C      A7
Bring back, oh bring back
      D7                                 G
Oh bring back my Bonnie to me, to me,
                        C      A7
Bring back, oh bring back
      D7                                 G
Oh bring back my Bonnie to me, to me,
My Bonnie is over the ocean   60

Mieke heeft een lammetje

  

E ---4--2--0--2---4-4-4--2-2-2--4-4-4---4--2--0--2---4-4-4---2-2-4-2-0-0-------
B -----------------------------------------------------------------------------
G -----------------------------------------------------------------------------
D -----------------------------------------------------------------------------
A -----------------------------------------------------------------------------
E -----------------------------------------------------------------------------

Advocaatje ging op reis

  
E-----0-----0-----0---3---3---1---0------0---------0-----0----0---
B--1-----1-----1----------------------3-----1---1-----1-----1-----
G-----------------------------------------------------------------
D-----------------------------------------------------------------
A-----------------------------------------------------------------
E-----------------------------------------------------------------

E--3----3-----1----0---------------
B------------------------3-----1---
G----------------------------------
D----------------------------------
A----------------------------------
E----------------------------------

Vader jacob | Kinderliedjes

Vader Jacob Vader Jacob Slaapt gij nog Slaapt gij nog
e|--------------------------------------------------------------------------|
B|--------------------------------------------------------------------------|
G|--------------------------------------0---------------0-------------------|
D|---0---2--------0---2------2------3--------2------3-----------------------|
A|-3-------3---3--------3---------------------------------------------------|
E|--------------------------------------------------------------------------|

 Alle klokken luiden Alle klokken luiden Bim bam bom Bim bam bom
e|--------------------------------------------------------------------------|
B|--------------------------------------------------------------------------|
G|-0-2--0---------------0-2--0----------------------------------------------|
D|----------3---2----------------3---2--------------------------------------|
A|-----------------3--------------------3----3-------3----3-------3---------|
E|-----------------------------------------------3------------3-------------|
Pagina 4 van 512345