‘Rock’ Categorie

Pagina 5 van 14« Eerste...34567...Laatste »

Shine on you crazy diamond

  

 
 
 
Chords:   Gm      355333
          Gm*     x5533x
          F#      244322
          Bb      688766
          Eb      x68886
          Dm      x57765
          Cm      x35543
          F       133211
          Gm/F#   x5433x
          Gm/F    x5333x
          C9      x3233x
          Edim    x7898x
 
Gm
Remember when you were young,
F#                 Bb
You shone like the sun.
Eb   Dm   Cm   Bb    F
Shine on you crazy diamond.
Gm
Now there’s a look in your eyes,
F#                      Bb
Like black holes in the sky.
Eb   Dm   Cm  Bb    F
Shine on you crazy diamond.

Nothing else matters

  

eerste paar zinnen aftokkelen en bij TRUST I SEEK beginnen met de slag zo speel ik hem altijd(2xomlaag,2xomhoog,1xomlaag,1xomhoog)
 
Em                 D   C   Em                    D        C Em
So close no matter how far,couldn’t be much more from the heart
 Em                D   C    G                  D  Em
For everr trusting who we are and nothing else matters
Em                  D    C   Em                         D   C 
Never opened myself this way love desires we live it our ways
Em               D       G          D               Em
All this words I don’t just say and nothing else matters
 
Trust I seek that I find in you every day for us something new
                                                C     A
Open mind for

Goodbye

  

4/4

D : x-x-0-2-3-2
Dsus2 : x-x-0-2-3-0
G : 3-2-0-0-0-3
G+5 : 3-2-0-0-0-0
A : x-0-2-2-2-0

Barré-akkoorden:

D : x-5-7-7-7-5
G : 3-5-5-4-3-3
A : 5-7-7-6-5-5

\ : slide down
x : muted
… : fade out

Lees verder… »

Nothing else matters | Metallica

E-------0-----|-------0-----|-------0-----|-------0---7-|
B-----0---0---|-----0---0---|-----0---0---|-----0---0---|
G---0-------0-|---0-------0-|---0-------0-|---0---------|
D-------------|-------------|-------------|-------------|
A-------------|-------------|-------------|-------------|
E-0-----------|-0-----------|-0-----------|-0-----------|

 E-7-----------7^0---------|---------7---8---7^8^7\5-7---5\2^0---|
 B-----0-----------0-------|---------0---0-----------0-----------|
 G---------0-----------0---|-----0-------------------------------|
 D-------------------------|-------------------------------------|
 A-------------------------|-------------------------------------|
 E-0-----------------------|-0-----------------------------------|

 Lees verder... »

Born In The USA | Bruce Springsteen

  

Begin met gewoon gitaar geluid en gebruik wat distortion wanneer het liedje echt vol begint.
Je kunt dit liedje spelen met een normaal gestemde gitaar.
Beluister de Youtube video om te luisteren wat de juiste timing is.
Voor de snelle gedeeltes van het liedje kun je de akkoorden strummen in plaats van gewoon spelen.
Wil je weten wat strumming is, bekijk dan eens deze video:

Strumming Youtube video

Voor het keyboard gedeelte kun je dit spelen:

E|--------------------------------|4-------------------------------|
B|--------7---------------5---7---|----5-------7-------------------|
G|--------------------------------|--------------------------------|
D|--------------------------------|--------------------------------|
A|--------------------------------|--------------------------------|
E|7-------------------------------|--------------------------------|
 Lees verder... »
Pagina 5 van 14« Eerste...34567...Laatste »