‘Top 40 gitaarliedjes met akkoorden’ Categorie

Pagina 4 van 49« Eerste...23456...Laatste »

Blurred lines

  

 
 
Capo op 2
 
Intro    F
                      F                                 C
      Everybody get a,                   Everybody get a
 
     Hey,  Hey,  Hey
 
     Hey,  Hey,  Hey
 
     Hey,  Hey, Hey Lees verder… »

Love me again

  

 
 
Capo op 3
 
Verse:
Em                    G
Know I’ve done wrong, left your heart torn
Bm                  A
Is that what devils do?
Em                G
Took you so long, Where only feels gone
Bm                   A
I shook the angel in you!
Em             G
Now I’m rising from the crowd
Bm           A
Rising up to you! Lees verder… »

Waves

  

 
 
Capo op 1 
 
INTRO
   Em       D        Bm      C
|-----------------|----------------|
|-------9---------|------4---------|
|---------------8-|--------------6-|
|----10-------8---|----5-------6---| x4
|--8--------6-----|--3-------4-----|
|-----------------|----------------| Lees verder... »

Alive

  

 

Capo op 2
 
Em                       D              G
Let’s make this fleeting moment last forever
C                D
So, tell me what you’re waiting for?
Em               D                G
I’m gonna keep it frozen here forever,
      C              D
There’s no regretting anymore.
Em                      D
It’s worth the wait, even so far away. Lees verder… »

Same love

  

 
 
Capo op 1
 
e|-5----5---------------------------------------------------------|
B|----7----3-----3-----3--6/7-------------------------------------|
G|------------------4---------------------------------------------|
D|-0----------------------0---------------------------------------|
A|---------2------------------------------------------------------|
E|---------------3------------------------------------------------| Lees verder... »
Pagina 4 van 49« Eerste...23456...Laatste »