‘Kerstliedjes’ Categorie

Pagina 2 van 512345

Last christmas + Instructie video

  

 

Stille nacht heilige nacht + Instructie video

  

 
e--0--2--0---0--2--0----7--7--4--5--5--0--2--2--5--4-2--0--2-0---2--2--5--4-2--0--2-0---7--7-|
B----------2----------2----------------------------------------2----------------------2------|
G--------------------------------------------------------------------------------------------|
D--------------------------------------------------------------------------------------------|
A--------------------------------------------------------------------------------------------|
E--------------------------------------------------------------------------------------------|




Lees verder… »

Jingle bells + Instructie video

  

e|--0-0-0-----0-0-0-----0-3-----0-|-1-1-1-1-1-0-0-0-0-----0-|
b|--------------------------1-3---|-------------------3-3---|
g|--------------------------------|-------------------------|
d|--------------------------------|-------------------------|
a|--------------------------------|-------------------------|
E|--------------------------------|-------------------------|
e|--3--0-0-0----0-0-0----0-3-----0-|--1-1-1-1-1-0-0-0-3-3-1-|
b|3--------------------------1-3---|------------------------|
g|---------------------------------|------------------------|
d|---------------------------------|------------------------|
a|---------------------------------|------------------------|
E|---------------------------------|------------------------|
e|---------------------------------------------------------|
b|3-1------------------------------------------------------|
g|---------------------------------------------------------|
d|---------------------------------------------------------|
a|---------------------------------------------------------|
E|---------------------------------------------------------|

Last christmas

  
 
 
INTRO: G
G           D
I hate that I remember
C          D
I wish I could forget
G             D
What you did last December Lees verder… »

Gloria In Excelsis Deo | Kerstliedjes

  

Am x02210
C x32010
Dm xx0231
F 133211
G 320003


C              G       C
Engelkens door 't luchtruim zwevend
C    G  C     C   G   C
Zongen zo blij, zo wonderzacht Lees verder... »
Pagina 2 van 512345