‘Kerstliedjes’ Categorie

Pagina 3 van 512345

We wish you a merry christmas

  

 
 
     C                F
We wish you a merry Christmas
     D                G
We wish you a merry Christmas
     C                F
We wish you a merry Christmas Lees verder… »

Flappie | Kerstliedjes

  

 
 
Intro:
A  E  A  D  A  F  G  A  (2 x)
 
             A       E    A      D              A            F     G       A
Het was kerstochtend 19 – 61, ik weet ’t nog zo goed, mijn konijnenhok was leeg
          A               E                  A         D                A              F       G       A
En moeder zei dat ik niet in de schuur mocht komen, en als ik lief ging spelen, dat ik dan wat lekkers kreeg
         A             E               A          D            A              F       G     A
Zij wist ook niet waar Flappie uit kon hangen, ze zou ’t pappa vragen, maar omdat die bezig was
       A                E                 A                D               A                 F      G     A
In het fietsenschuurtje moest ik maar een uurtje goed naar Flappie zoeken, hij liep vast wel ergens op ’t gras

Let it snow TAB

  

 
Let it snow. Repeat 4 times for the whole song.
e------------5--5--3-----------------------3-----3------------------------------------
b---------------------6--5--6-----------------5-----6--5------------------------------
g------5--5--------------------5-----5--5-----------------5---------------------------
d-------------------------------------------------------------------------------------
a-------------------------------------------------------------------------------------
E-------------------------------------------------------------------------------------
e------------10--10--8--6--5--3-----12--10--8--8--6--5--5--3--1-----------------------
b-------------------------------------------------------------------------------------
g------7--7---------------------------------------------------------------------------
d-------------------------------------------------------------------------------------
a-------------------------------------------------------------------------------------
E-------------------------------------------------------------------------------------

Oh denneboom TAB

  

 
Oh denneboom, oh denneboom.
wat zijn je takken wonderschoon.
ik heb je laatst in 't bos zien staan.
toen zaten er geen kaarsjes aan.
Oh denneboom, oh denneboom.
wat zijn je takken wonderschoon.
e|-----0-0-0---|---2-4-4-4---|---4-2-4-5---|-----2-0-0---|
B|---0---------|-------------|-------------|---4---------|
G|-------------|-------------|-------------|-------------|
D|-------------|-------------|-------------|-------------|
A|-------------|-------------|-------------|-------------|
E|-------------|-------------|-------------|-------------|
e|-----0-0-0---|---2-4-4-4---|---4-2-4-5---|-----2-0-0---|
B|---0---------|-------------|-------------|---4---------|
G|-------------|-------------|-------------|-------------|
D|-------------|-------------|-------------|-------------|
A|-------------|-------------|-------------|-------------|
E|-------------|-------------|-------------|-------------|
e|---7-7-4-9---|--7-7-5-5----|---5-5-2-7---|--5-5-4-4----|
B|-------------|-------------|-------------|-------------|
G|-------------|-------------|-------------|-------------|
D|-------------|-------------|-------------|-------------|
A|-------------|-------------|-------------|-------------|
E|-------------|-------------|-------------|-------------|
Note: de nieuwe spelling is dennenboom, maar je zingt denneboom.

Jingle bells TAB

  

 
e--------------------------------------------
B----0-------------0---------1-0-----3-3-1---
G------2-0-----------2-0---------2---------2-
D--0-------0-0-0-0-------2-2-------4---------
A--------------------------------------------
E--------------------------------------------
e-------------------------------------------0---------------------------|
A--0---0------------0---------1-0---3-3-3-3---3-1-----3-0-0-0-0-0-0-0-3-|
G--------2-0----------2-0---------2---------------2-0-------------------|
D----0-------0-0-0-0------2-2-------------------------------------------|
A-----------------------------------------------------------------------|
E-----------------------------------------------------------------------|
e----------------------------------------
B------0-1-1-1-1-1-0-0-0-0-0-0-----0---3-
G--0-2-------------------------2-2---2---
D----------------------------------------
A----------------------------------------
E----------------------------------------
e----------------------------------------------------------||
A--0-0-0-0-0-0-0-3-----0-1-1--1-1-1-0-0-0-0-3-3-1----------||
D------------------0-2----------------------------2-0------||
G----------------------------------------------------------||
A----------------------------------------------------------||
E------------------ en dit herhaal je steeds --------------||
Pagina 3 van 512345