‘Kerstliedjes’ Categorie

Pagina 4 van 512345

Feliz navidad TAB

  

 
*/ = Slide up
*\ = Slide down
e|-------------|----0--------|--------------------------------------------|
B|----3-2-3-0--|--0---3-0----|----3-2-3-0---0-0-----0---------------------|
G|--2----------|----------2--|--2---------0-----2-2---2-0-0---------------|
D|-------------|-------------|------------------------------4(4)----------|
A|-------------|-------------|--------------------------------------------|
E|-------------|-------------|--------------------------------------------|

Lees verder… »


Er is een kindeke geboren op aard TAB

  

 
E ---0-3-1-00-0-3-7-7-9-7---------
B --------------------------------
G -------------------------------- Er is een kindeke geboren op aard
D --------------------------------
A --------------------------------
E --------------------------------
E ---0-3-1-00-0-3-7-7-9-7---------
B --------------------------------
G -------------------------------- Er is een kindeke geboren op aard
D --------------------------------
A --------------------------------
E --------------------------------
E ---5-9-5-3-7-3-1-3-5-7---------
B -------------------------------
G ------------------------------- 't Kwam op de aarde voor ons allemaal
D -------------------------------
A -------------------------------
E -------------------------------
E ---5-9-5-3-7-3-1-3-1-0---------
B -------------------------------
G ------------------------------- 't Kwam op de aarde voor ons allemaal
D -------------------------------
A -------------------------------
E -------------------------------
't Kwam op de aarde en 't had er geen huis 
't Kwam op de aarde en 't had er geen huis
't Kwam op de aarde en 't droeg al zijn Kruis
't Kwam op de aarde en 't droeg al zijn Kruis
Er is een Kindeke geboren in 't strooi
Er is een Kindeke geboren in 't strooi
't Lag in een kribbe, bedekt met wat hooi
't Lag in een kribbe, bedekt met wat hooi

De herdertjes lagen bij nachten

  

 
De herdertjes lagen bij nachten, zij lagen bij nacht in het veld.
-----------0---------------1-0----0-1-0---0-0------
-------1-----3-1-0-1-3---------3------3------3-1---
---0-----------------------------------------------
---------------------------------------------------
---------------------------------------------------
---------------------------------------------------
Zij hielden vol trouwen de wachte, zij hadden hun schaapjes geteld.
-----------0---------------1-0----0-1-0---0-0------
-------1-----3-1-0-1-3-------3---------3------3-1--
---0-----------------------------------------------
---------------------------------------------------
---------------------------------------------------
---------------------------------------------------
Toen hoorden zij engelen zingen, hun liederen vloeiend en klaar.
-------0-------------------------------------------
--3-3---3-1-0------------1-0-1-1-0-----------------
------------------2-2-0-0---------------2-0--------
---------------------------------------------------
---------------------------------------------------
---------------------------------------------------
De herders naar Bethlehem gingen, 't liep tegen het nieuwe jaar.
-------------------0-1-3--1-0-------0--------------
---1-0-1-3-1-3---------------3-1------3-1----------
-0-------------------------------------------------
---------------------------------------------------
---------------------------------------------------
---------------------------------------------------

All I want for christmas is you

  

 

G
 e:-------------------------|-------------------------||
 B:-------------------------|-------------------------||
 G:-------------0-----------|----------0--------------||
 D:-------0--4-----4--2--0--|----0--2-----0-----------||
 A:----2--------------------|-3-----------------------||
 E:-3-----------------------|-------------------------||

B7 Cm Am7 D7 E7
Je kunt Cm ook spelen als: x-3-5-5-4-3
Dat vind ik iets makkelijker, je legt hierbij je wijsvinger plat op de vakjes 3 (barré).
[Verse 1]

G
I don't want a lot for Christmas Lees verder... »

Komt allen tezamen | Kerstliedjes

  

      G       D
Komt allen tezamen,
G   C        G     D
jubelend van vreugde
A           D             G     A  D
Komt nu, o komt nu naar Beth-le-hem! Lees verder... »
Pagina 4 van 512345