‘Liedjes’ Categorie

Pagina 167 van 174« Eerste...165166167168169...Laatste »

Here comes the sun TAB | George Harrison

  


Capo op 7

Dit zijn alle delen, de volgorde ervan is een beetje zelf nog te bepalen.
intro/verse gedeelte:
---2-----0--2-----2--0------------0----------------------0----|
---3--3--------3--------3--0--3--(0)--3--0--2--0--2--3--(2)---|
---2-----------------------0-------------0--------------------|
---0-----------------------0-------------2--------------------|
---------------------------2-------------0--------------------|
---------------------------3----------------------------------| Lees verder... »

La bamba | Los Bobos

  

 
Intro:
E |----------------------------||----------------------------| 
B |----------------------------||----------------------------| 
G |----------------0-----2--0--||----------------------------| 
D |-------------2----3---------||-------0---3--3--2---0------| 
A |----0--2--3-----------------||----2-----------------------| 
E |-3--------------------------||-3--------------------------| Lees verder... »

Say heaven say hell | Miss Montreal

  

 
C#m
 
INTRO:
 
 E
 Oh
 
 VERSE:
 
 E
 Trading the last stuff for dimes, Lees verder… »

Id be yours | Ilse Delange

  
 
Capo op 1
 
Intro:
G D C D (2x)
 
   G                 D                C                D
If I were ghost I’d haunt your house hang out in your rafters
 G               D           C             D
You could be my Mister Adams I could your Casper Lees verder… »

Happy | Pharrell Williams

  
 
Capo op 1
 
De akkoorden die aan het einde van de regels tekst staan worden afgewisseld met het aanslaan van de snaren zonder vakjes in te drukken.
 
    Em  LOS   A  LOS   B  LOS  A  LOS
 
 
 Em                                          Em  A  B    A  
    It might seem crazy what I’m about to say Lees verder… »
Pagina 167 van 174« Eerste...165166167168169...Laatste »