‘Liedjes’ Categorie

Pagina 168 van 174« Eerste...166167168169170...Laatste »

Mia | Gorki

  

fig 1 (intro + verses)
 Am G C
E |------------0-----------0---------
B |1-----1--3-----3--1--3--1-----1---
G |---2-----2-----2--2--0-----0-----0
D |----------------------------------
A |0--------------------2--3---------
E |----------------------------------
 Lees verder... »

Royals TAB | Lorde

  

e-----------------------------------------------------------------------|
B-----------------------------------------------------------------------|
G-----------7-7-5-5------------7-7-5-5--------------------7-7-5-5-7-5---|
D-7-7-7-7-7---------7----7-7-7---------7--5-7-5-4---7-7-7-------------7-|
A-----------------------------------------------------------------------|
E-----------------------------------------------------------------------|
e--------------------------------------------------------------------------|
B-------8-7-----8-7------------7------------7-7-7-7------------7-7-7-7-----|
G-7-7-7-----7-7-----9-7--7-7-9---9-7----7-7---------7-7----7-7---------7-7-|
D------------------------------------7-7----------------7-7----------------|
A--------------------------------------------------------------------------|
E--------------------------------------------------------------------------| Lees verder... »

All of me | John Legend

  

 
Capo op 1
 
[Verse 1] (Em, C, G, D)
Em           C                       G  
What would I do without your smart mouth
            D                  Em
Drawing me in, and kicking me out Lees verder… »

If I die young | Perry

  
 
 
Capo op 2
Akkoorden:
 
   G   D   A  Bm4 
e|-3---2---0---0-|
B|-3---3---2---3-|
G|-0---2---2---4-|
D|-0---0---2---4-|
A|-2---x---0---0-|
E|-3---x---0---x-|

Need you now | Lady Antebellum

  
 
 
Capo op 4
 
F Am
 
F                                                   Am
Picture perfect memories scattered all around the floor
F                                                  Am
Reaching for the phone ‘cause I can’t fight it anymore
      F                            Am
And I wonder if I ever cross your mind
          F                F
For me it happens all the time Lees verder… »
Pagina 168 van 174« Eerste...166167168169170...Laatste »