‘Liedjes’ Categorie

Pagina 171 van 174« Eerste...169170171172173...Laatste »

Talk dirty | Jason Derulo

  

 
F#m
 
Het hele liedje gebruik je het F#m akkoord zoals hierboven. Barre op vakje 2 oftewel je wijsvinger plat neerleggen en de vakjes 4 op de 4de en 5de snaar indrukken. Zie het schema hierboven. De nummers in het schema staan voor de vingers 1 = wijsvinger en 5 = pink. Je slaat het hele liedje 1 keer de 6de snaar aan en dan 1 keer de 4de en 3de snaar tegelijk aan en dan 2 keer de 6de snaar en dan weer de 3de en 4de snaar. Dat herhaal je. Lees verder… »

Samen voor altijd | Marco Borsato

  

 
Capo op 5
 
Akkoorden
                   F               C                G             Am
---|----1-------0-------3-------0-------|
---|----1-------1-------3-------2-------|
---|----2-------0-------0-------2-------|
---|----3-------2-------0-------0-------|
---|----0-------3-------2-------0-------|
---|----0-------0-------3-------0-------| Lees verder... »

Counting stars

  

Capo op 4  * (Zonder Capo is het C#m, E, B, A)
 
Het liedje herhaald eigenlijk Am, C, G, F
 
Intro: (plucking Am, C, G, F) Lees verder… »

Trumpets

  

 
[Hook:]
      C         F       Am          G
Every time that you get undressed
       C       F     Am          G
I hear symphonies in my head Lees verder… »

The monster TAB

  

e|---------------------------------------------------------------------------|
B|---------12-9--------9------------12-9--------9-9--------------------------|
G|-9-11-9-------9-11-9---6---9-11-9------9-11-9------------------------------|
D|---------------------------------------------------------------------------|
A|---------------------------------------------------------------------------|
E|---------------------------------------------------------------------------|
e|---------------------------------------------------------------------------|
B|---------12-9---------9-------------12-9--------12-9-10-10-10-10p9---------|
G|--9-11-9------9-11-9-----6---9-11-9------9-11-9----------------------------|
D|---------------------------------------------------------------------------|
A|---------------------------------------------------------------------------|
E|---------------------------------------------------------------------------|
Pagina 171 van 174« Eerste...169170171172173...Laatste »