‘Liedjes’ Categorie

Pagina 4 van 171« Eerste...23456...Laatste »

Down | Fifth Harmony

  

Capo op 6

D A Bm F#m
Je kunt de akkoorden spelen, maar je kunt ook heel simpel meespelen
door onderstaande tab gedurende het hele liedje te herhalen.
  D   A      Bm  F#m  
e|2-2-------------------|
B|----2-2-2--3-3--------|
G|---------------2-2-2--|
D|0-0-------------------|
A|----0-0-0--2-2--------|
E|---------------2-2-2--|
 Lees verder... »

Old Church Choir | Zach Williams

  

F C G Am
[Verse 1]
           F    C         G         Am
There's revival, and it's spreading
         F        C        G
Like a wildfire in my heart Lees verder... »

Dynamite | Sigrid

  

Capo op 1

F C Am
G Dm
[Intro] 

F C Am 2x

[Verse]
F                C          Am  
Don't know where I am with you
F                    C          Am       
Forgetting time and space with you Lees verder... »

Chinatown | Liam Gallagher

  

Capo op 2

Akkoorden

---------
F  1332xx
C  x3201x
G  32003x

[Intro]

    F               C               F               C
e|-------------------------------|-----------------------------------|
B|----------------------------1--|-----------------------------------|
G|------2-------------0----------|------2---------------0------------|
D|----3-----2------------2-------|----3-----2-------0h2---2---0h2----|
A|--------------3-----------3----|--------------3-----------------3--|
E|--1-----1---------0------------|--1-----1--------------------------|
 Lees verder... »

Surefire | John Legend

  
F#m D A6
A Dm7
[INTRO]
F#m  D  A6
F#m  D  A6

[VERSE]
F#m           D                     A
 Can you just stay through the night?
F#m            D           A
 Turn down the bed and the blinds Lees verder... »
Pagina 4 van 171« Eerste...23456...Laatste »