‘Liedjes’ Categorie

Pagina 4 van 167« Eerste...23456...Laatste »

Despacito Tab – Luis Fonsi

  

[Intro]
e|-------2---------2-------2---------2-------------------|
B|---------3---------3--------3---------3----------------|
G|----4---------4--------4---------4---------------------|
D|-------------------------------------------------------|
A|-------------------------------------------------------|
E|-------------------------------------------------------|
 Lees verder... »

Party Tattoos | Dodie Clark

  

C G D
Gm Eb
[Intro]
C

[Verse 1]
G
Take a look at the clock
G
Only so long to go Lees verder... »

Dont Dream Its Over | Crowded House

  

Capo op 3

F E C
Am G

Csus2 en C9 zie je hieronder als tab in de intro staan en deze heb je verderop in het liedje ook nodig.

[Intro]

   Csus2            Csus2            Csus2            Csus2   C9
e |3------33---3---|3------33---3---|3------33---3---|3-------3-------|
B |3------33---3---|3------33---3---|3------33---3---|3-------3-------|
G |5------55---5---|5------55---5---|5------55---5---|5-------3-------|
D |5------55---5---|5------55---5---|5------55---5---|5-------5-------|
A |3------33---3---|3------33---3---|3------33---3---|3-------3-------|
E |x------xx---x---|x------xx---x---|x------xx---x---|x-------x-------|
 Lees verder... »

One Last Time | Ariana Grande

  

Capo op 1

G C Em
Am D
[Intro]

 G C Em C Am C Em C Em C Em Am D


[Verse 1]
G
I was a liar
    C
I gave into the fire Lees verder... »

Boys Like You | Anna clendening

  
G D A Bm
[Intro]
                     G         D
Mama said there'd be boys like you
           A        Bm
Tearin' my heart in two Lees verder... »
Pagina 4 van 167« Eerste...23456...Laatste »