‘Sinterklaasliedjes’ Categorie

Pagina 2 van 41234

Sinterklaas kapoentje TAB

  

Sinterklaas kapoentje,
gooi wat in mijn schoentje,
gooi wat in mijn laarsje,
dank u, Sinterklaasje....
e---------0--0---------------0--0-------------------------0---------------------
B--3--3--------3--0--3--3----------3--0--1--1--1-----1--1----3--1--0------------
G-------------------------------------------------2-------------------2--0------
D-------------------------------------------------------------------------------
A-------------------------------------------------------------------------------
E-------------------------------------------------------------------------------

Oh kom er eens kijken

  

 
 
Leer Oh kom er eens kijken op je gitaar spelen. Het gitaarakkoord dat niet heel vaak tegenkomt is B7 en hieronder staat hoe je die speelt. Zodra je die kan pakken dan geloof ik dat je dit liedje kan spelen.
 
akkoorden: 
E   022100
B7  x21202
 
E
Oh kom er eens kijken
       B7     E         B7
Wat ik in m’n schoentje vind
E
Alles gekregen 
        B7    E
Van die beste Sint

Hoor wie klopt daar kinderen TAB

  

e--------0---------------0--------------------------0----------------|
B----------1-1-1-----------1-1-1-------3-2-3-2-3-----1---------------| Dit 2x
G--0-0------------0-0-------------0-0----------------------0-0-------|
D--------------------------------------------------------------------|
A--------------------------------------------------------------------|
E--------------------------------------------------------------------|
e---------1-1-1-0------0---------------0--------------1-1-0----0--------0------------|
B--1---------------1--------3-2-3-2-3---1--------------------1---3-2-3----1----------|
G-----2--------------0--------------------2---0-0-2----------------------------------|
D------------------------------------------------------------------------------------|
A------------------------------------------------------------------------------------|
E------------------------------------------ en dit herhaal je 2 x in zijn totaal-----|

Lees verder… »

Zachtjes gaan de paarde voetjes TAB

  


e------------------------------0-------------------------------0--------------
B------1-1-1-3-1-0-0-3---3---3---1-----1-1-1-3-1-0-0-3---3---3----1--1--0-----
G--0-0-----------------0---0--------0-0----------------0---0------------------
D-----------------------------------------------------------------------------
A-----------------------------------------------------------------------------
E-----------------------------------------------------------------------------
e-----------------------------------------------------0--0--0-----------------
B-----0--1------------------------------------0--1--3---------3----0--3--1----
G--2-------2--0--0--0----0--2---------0--0--2--------------------2------------
D----------------------3--------3--2------------------------------------------
A-----------------------------------------------------------------------------
E-----------------------------------------------------en dit herhaal je steeds

Lees verder… »

Zwarte pieten stijl

  

 

Gebruikte Akkoorden:

    Am  E   F   G   A
e---0---0---1---3---5---|
B---1---0---1---3---5---|
G---2---1---2---4---6---|
D---2---2---3---5---7---|
A---0---2---3---5---7---|
E---0---0---1---3---5---|
Als voorbeeld van de gebruikte akkoorden zie: Parody – Gangnam style
 
— VERSE —
Am
zwarte pieten stijl
E, G
pieten stijl Lees verder… »
Pagina 2 van 41234