‘Sinterklaasliedjes’ Categorie

Pagina 3 van 41234

Zie de maan schijnt door de bomen TAB

  

Zie, de maan schijnt door de bomen,
makkers staakt uw wild geraas.
't Heerlijk avondje is gekomen,
't avondje van Sinterklaas.
Vol verwachting klopt on hart,
wie de koek krijgt, wie de gard.
Vol verwachting klopt on hart,
wie de koek krijgt, wie de gard....
e--------------0-----------0-----------------0-----------0----------------
B------1-1-1-3---1-3-3-3-3---3-1-----1-1-1-3---1-3-3-3-3---3-1-1-1--------
G--0-0---------------------------0-0--------------------------------------
D-------------------------------------------------------------------------
A-------------------------------------------------------------------------
E-------------------------------------------------------------------------

Lees verder… »


Zwarte piet ging uit fietsen

  

 
 
C = C = -X-3-2-0-1-0-
G = G = -3-2-0-0-0-3-
F = F = -1-3-3-2-1-1-
G7 =  -3-2-0-0-0-1
 
Maat: 3/4
 
Sinterklaas – Zwarte Piet Ging Uit Fietsen
 
C                    G             G7          C
Zwarte Piet ging uit fietsen, toen knapte zijn band.
                    G             G7             C
Toen moest hij gaan lopen, met de fiets aan zijn hand.
    G          C          F             G
Hij kwam in ’n dorpje, en zei tegen de smid:
     C                                  G           C
‘k Geloof dat er in mijn achterband een pepernootje zit Lees verder… »

Zwarte piet wiedewiedewiet

  

 
 
A      D A
Zwarte Piet, wiedewiedewiet,       
E         A   E        A
‘k Hoor je wel maar ik zie je niet.
A    D A
Wil je Sint de groeten doen?
E        A  E       A
Gooi wat in mijn lege schoen.
A     D A
Zwarte Piet, wiedewiedewiet,       
E          A    E      A
‘k Hoor je wel maar ik zie je niet.

Sinterklaas is jarig TAB

  

 
e----------3---0-0-3-2-0---------0---------3-2-0------
B--3-3-3-3---3-----------3---0-1---3-0----------------
G--------------------------2-----------2-2------------
D-----------------------------------------------------
A-----------------------------------------------------
E-----------------------------------------------------
e-----------0----------0-2------3-2-2-2-0----------------
B--3-0-1-3----1----1-3-----3-0-3------------0-3-1--------
G----------------2------------------------2-------2-0----
D--------------------------------------------------------
A--------------------------------------------------------
E------------------------------ en dit heerhaal je steeds
 Lees verder... »

De zak van sinterklaas

  

 
 
 
G9 / D6 / G7
G/B gitaarakkoord
   
      G                     C              F      G       C
De zak van Sinterklaas,sinterklaas,sinterklaas
 
      G                     C                       G9                     C
De zak van Sinterklaas,oh jongens,jongens ‘tis zo’n baas
 
          G7                 C                   Dm     G/B        C
Daar stopt hij daar stopt hij daar stopt hij blij van zin
 
     G7        C             D6    D      G 
de hele,de hele de hele wereld in
 
      G                     C               F      G       C
De zak van Sinterklaas,sinterklaas,sinterklaas
 
      G                     C                         G9                  C
De zak van sinterklaas oh jongens jongens tis zo’n baas
 
Pagina 3 van 41234