‘Gemiddeld’ Categorie

Pagina 11 van 11« Eerste...7891011

Addicted to you TAB | Avicii

  

Capo op 4

Intro:
Am
e|-0-0----0---0---0--|
B|-1-1---1----1---1--|
G|------2-----------:|
D|-----2--------2----|
A|-0--------0--------|
E|-------------------| Lees verder... »

Rather be Intro TAB | Clean Bandit ft. Jessy Glynne

  

Deze ziet er moeilijk uit, maar het valt mee.
Het moeilijkste is om te vakjes op te zoeken aangezien de nummers hoger zijn.

TIP: Gebruik de stippen op de zijkant van de hals van je gitaar om makkelijker de vakjes te vinden.
1ste stip = 5de vakje
2de stip = 7de vakje
3de stip = 9de vakje
4de stip = 12de vakje

e|-----------------------------------------------------------------------------|
B|-------------12--14--11------------------------------------------------------|
G|---------13-------------------------------13---------------------------------|
D|-----13-------------------------------13------16--13--16---------------------|
A|-14-------------------------------14-----------------------------------------|
E|------------------------------16---------------------------------------------| Lees verder... »

Here comes the sun TAB | George Harrison

  


Capo op 7

Dit zijn alle delen, de volgorde ervan is een beetje zelf nog te bepalen.
intro/verse gedeelte:
---2-----0--2-----2--0------------0----------------------0----|
---3--3--------3--------3--0--3--(0)--3--0--2--0--2--3--(2)---|
---2-----------------------0-------------0--------------------|
---0-----------------------0-------------2--------------------|
---------------------------2-------------0--------------------|
---------------------------3----------------------------------| Lees verder... »

The monster TAB

  

e|---------------------------------------------------------------------------|
B|---------12-9--------9------------12-9--------9-9--------------------------|
G|-9-11-9-------9-11-9---6---9-11-9------9-11-9------------------------------|
D|---------------------------------------------------------------------------|
A|---------------------------------------------------------------------------|
E|---------------------------------------------------------------------------|
e|---------------------------------------------------------------------------|
B|---------12-9---------9-------------12-9--------12-9-10-10-10-10p9---------|
G|--9-11-9------9-11-9-----6---9-11-9------9-11-9----------------------------|
D|---------------------------------------------------------------------------|
A|---------------------------------------------------------------------------|
E|---------------------------------------------------------------------------|
Pagina 11 van 11« Eerste...7891011