‘Moeilijk’ Categorie

Pagina 1 van 212

Tribute to the Best Song in the World

  

Abbreviated chords:
A1 - (X02400) (Asus2)
G1 - (3X2400) (Asus2/G)
F#1 - (2X0230) (Dsus2/F#)
F#2 - (2X0210) (Dm7sus2/F#) ?
F#3 - (2X0200)
F1 - (X03210) (FM7)

Normal F’s and G’s should be played using bar chords,(133211),(355433)
But don’t need to be played this way.Fig 1
e|-------------0-0-0-0-0-0-----0-------0-0-0-0-0-|
B|-------------1-1-1-1-1-1h3p1p0h1-----1-1-1-1-1-|
G|-----0h2-----2-2-2-2-2-2-----2-------2-2-2-2-2-|
D|-0h2-------2-2-2-2-2-2-2-----2-----2-2-2-2-2-2-|
A|---------0---0-0-0-0-0-----------0---0-0-0-0-0-|
E|-----------------------------------------------|

Lees verder… »


Get Busy

  

Dit liedje kunt u samen met een andere gitarist spelen. De een speelt de akkoorden en de andere speelt het melodie.

De akkoorden die u achtereenvolgens speelt en blijft herhalen zijn:

Em                       G/E                F#/E                 F/E

0 2 2 0 0 0     0 5 5 4 3 X    0 4 4 3 2 X   0 3 3 2 1 X

Het melodie dat je blijft herhalen:
e||------------------10----------|----------------------13------|
B||--12------11--12------12--11--|--------------10--13------13--|
G||------------------------------|--11------10------------------|
D||------------------------------|------------------------------|
A||------------------------------|------------------------------|
E||------------------------------|------------------------------|

 

Lollypop

  

|-----------------------3333------| Herhalen tot...........
|--3333---5555---6666-------------| refrein:D F C Bm
|---------------------------------|
|---------------------------------|
|---------------------------------|
|---------------------------------|

De akkoorden zijn:
D F C Bm
|-2-|OR |-5-| |-1-|OR |-5-| |-0-|OR |-3-| |-1-|OR |-6-|
|-3-| |-7-| |-1-| |-6-| |-1-| |-5-| |-3-| |-6-|
|-2-| |-7-| |-2-| |-5-| |-0-| |-5-| |-3-| |-5-|
|-0-| |-7-| |-3-| |-7-| |-2-| |-5-| |-3-| |-8-|
X |-5-| |-3-| |-8-| |-3-| |-3-| |-1-| |-8-|
X X |-1-| X X X X |-6-|

Yesterday

  
Instrumental Edition

|-----------------|-----------0-2-3-|-2---0-0-----------|-----0-0---------|
|---------3-----3-|---------4-------|---0-------0-----0-|---1-----3-1-0---|
|-------4---4---4-|-----4-2-2-------|---0-----0---0---0-|---0-----------2-|
|-7\5-5-----------|---2-----4-------|-------------------|---------0-------|
|-----------------|---4-----2-------|-------7-------5---|-3---------------|
|-----3-------3---|-2---------------|-0-----------------|-----------------|


Fine
|----------------|---0-------------|-------------------||-----------------|
|1---0-0-0-------|---0---------5---|-----0-0-0---------||-0-------0-------|
|--0-------0-2---|---0-------6-----|-0-------0-0---0--*||-----2-------2---|
|--0-------0---0-|-5---9\7-7-------|---2-----0-0---0--*||---2---2---1---1-|
|----------------|---------0-----7-\-3-----------------||-2-------2-------|
|3-------3---2---|-0---------------|-----3-------3-----||-----------------|

Lees verder… »

We will rock you solo

  
Als je een elektrische gitaar hebt, dan kun je distortion
of over drive gebruiken bij dit nummer.

Symbolen :

----------

h - hammer on

p - pull off

b - bend up

r - release bend

() - optional note

E-----------------------------------------------------------------
B-----------------------------------------------------------------
G------------5---5------------2----2-------2---2------------------
D------------5---5------------2----2-------2---2------------------
A------------3---3------------0----0-------0---0------------------
E--------------------------------3-----------3--------------------

Lees verder… »

Pagina 1 van 212