‘Gitaartabs’ Categorie

Pagina 2 van 2412345...Laatste »

Kissing Strangers Tab | Dnce

  

[Main theme]
e|---------------------------------------------------------------------------|
B|---------------------------------------------------------------------------|
G|---------------------------------------------------------------------------|
D|--------3--4--5----------------------1-2-3--1-2-3-0------------------------|
A|-----------------5---3---1-2-3------------------------3-4-5-1--------------|
E|----3--------------------------3---1---------------------------------------|
 Lees verder... »

Beauty And The Beast – Tale As Old As Time Tab

  

Capo op 3

[Verse] 
   G             C               G                   D
e|---------------------------------------------------------------------------|
B|---------------------1-0--------------------------------0---0-1-3----------|
G|------------0-----------2-0---------------------0--2-------2---------------|
D|-----0-4--------------------0-----------0---4------------------------------|
A|-2--------------3--------------------2-------------------------------------|
E|---------------------------------------------------------------------------|
  Tale as old as time    (echo)       True as it can be    (echo)
  Lees verder... »

Het Wilhelmus (Koningsdag)

  

Leuk voor Koningsdag. Misschien kun je zelfs wat geld verdienen.

|------------------------------------------------------------------------|
|------------------0---1----------0---------0---1---0--------------------|
|------0--0--2---------------2--------2-----------------2---0---2---0----|
|---0--------------------------------------------------------------------|
|------------------------------------------------------------------------|
|------------------------------------------------------------------------|
Wilhelmus van nassauwe, ben ik van duitse bloed
|-------------------------------------------------------------------------|
|-------------------0---1--------0----------0---1---0---------------------|
|------0--0--2---------------2-------2-----------------2---0---2---0------|
|---0---------------------------------------------------------------------|
|-------------------------------------------------------------------------|
|-------------------------------------------------------------------------|

Lees verder… »

Still Got Time | Zayn Malik

  
Riff

e|-1-----------1---------------1---|-------------------------0-------|
B|-------1-----------------x-------|-0-----3-----1-------------------|
G|---------------------------------|---------------------------------|
D|-0-------------------------------|---------------------------------|
A|---------------------------------|-------------0-------------------|
E|---------------------------------|-3-------------------------------|
   1 e + a 2 e + a 3 e + a 4 e + a   1 e + a 2 e + a 3 e + a 4 e + a
         s                 s   s           s                 s
   Dm7                               G           Am7
 Lees verder... »

Alle Eendjes Zwemmen In Het Water | Kinderliedjes

  
F C7 Dm Bb
 F    C       F
Alle eendjes zwemmen in het water Lees verder... »
Pagina 2 van 2412345...Laatste »