‘Gemiddeld’ Categorie

Pagina 1 van 1112345...Laatste »

Despacito Tab – Luis Fonsi

  

[Intro]
e|-------2---------2-------2---------2-------------------|
B|---------3---------3--------3---------3----------------|
G|----4---------4--------4---------4---------------------|
D|-------------------------------------------------------|
A|-------------------------------------------------------|
E|-------------------------------------------------------|
 Lees verder... »

Still Got Time | Zayn Malik

  

Riff

e|-1-----------1---------------1---|-------------------------0-------|
B|-------1-----------------x-------|-0-----3-----1-------------------|
G|---------------------------------|---------------------------------|
D|-0-------------------------------|---------------------------------|
A|---------------------------------|-------------0-------------------|
E|---------------------------------|-3-------------------------------|
   1 e + a 2 e + a 3 e + a 4 e + a   1 e + a 2 e + a 3 e + a 4 e + a
         s                 s   s           s                 s
   Dm7                               G           Am7
 Lees verder... »

Zen Zen Zense | RADWIMPS

  

Capo op 9

[Intro]
e|---------------------14---11----12p11--------------------------------------|
B|----------12----14-----------12-------12-----------------------------------|
G|-------------11----11--11--------------------------------------------------|
D|-9h13p9------------------------------------------------------------------| (x3)
A|---------------------------------------------------------------------------|
E|---------------------------------------------------------------------------|
 Lees verder... »

Zombie TAB

  

INTRO:
Het slagje van het intro moet je uitproberen door ernaar te luisteren.
Clean:
e Cmaj7 G D
e-|-0-----0-----3-----2
B-|-0-----0-----0-----3
G-|-0-----0-----0-----2
D-|-2-----2-----0-----0
A-|-2-----3-----2-----0
E-|-0-----------3-----2
D kun je ook als x00232 spelen.
Lees verder... »

Day tripper TAB

  

 

This is the main riff:
e------------------------------
b------------------------------
g------------------------------
d-------------2-0---4----0-2----
a----------2------2----2--------
e--0--3-4-----------------------
 Lees verder... »
Pagina 1 van 1112345...Laatste »