‘Gemiddeld’ Categorie

Pagina 2 van 1112345...Laatste »

Beautiful

  

 

Capo op 1

Intro:
E|---3-----3-----3-----3-----3-----3-----3-----3-----3-----3-----3-----3--|
A|---3-----3-----3-----3-----3-----3-----3-----3-----3-----3-----3-----3--|
D|---0-----0-----0-----0-----0-----0-----0-----0-----0-----0-----0-----0--|
G|------------------------------------------------------------------------|
B|------------------------------------2-----2-----3-----3-----3-----3-----|
E|-3----3-----2-----2-----0-----0-----------------------------------------| Lees verder... »

Wake me up when september ends | Green Day

  

C – |x32010| Em – |022000|
Cm – |x35543| Bm – |x24432|
G – |3×0033| D – |xx0232|
G/Gb – |200033|

e| |----0-----0-----| e| |----------------| ||
B| |----1-1---1---1-| B| |----5-----5-----| ||
G| |--0-------0-----| G| |----5-5---5---5-| ||
D| |----------------| D| |--5-------5-----| ||
A| |3-------3-------| A| |3-------3-------| ||
E| |----------------| E| |----------------| ||
 ||
In Verse 1, playing the bar chord version of the ||
C chord makes it much easier to transition to ||
the Cm chord that follows it. ||

Lees verder… »

Tears in heaven

  

 
-Here Is How the Song is Played-
(Intro) \
(Verse) > X2
(Chorus)//
(Before Bridge)
(Bridge)
(Chorus)
(Intro)
(Verse)
(Chorus)
(Outro)
(Intro)

A E/G# F#m A/E
E||-----|-----------------------------|-------------------------|
B||-----|--------2h3p2----5-----5--2--|-------2-----2-----2-----|
G||-----|-----2--------2--4-----4--2--|-------2-----2-----2-----|
D||-----|-----------------------------|-------------------------|
A||-----|--0--------------------------|-------------------------|
E||-0h2-|-----------------4--4-----2--|----2-----2--0--0-----0--|

Lees verder… »

All the Right moves

  

Intro/Verse/Chorus/ gitaar and keys
Basic chords

Let ring for Intro/Chorus, play each 8 times for Chorus
Am G C F
e|-----3-------1-|
B|-1---3---1---1-|
G|-2---0---0---2-|
D|-2---0---2---3-|
A|-0---2---3---3-|
E|-----3-------1-|

Or can play this way
e|-----3---------------3-------1-|
B|-1---3---1-------1---3---1---1-|
G|-2---0---0---2---2---0---0---2-|
D|-2---0---2---3---2---0---2---3-|
A|-0---2---3---3---0---2---3-----|
E|-----3-------1-------3---------|

Lees verder… »

Catch me

  

e|--------------------------------------------|
B|----9---9---9---9----9---9---9---9----------|
G|----9---9---9---9----9---9---9---9----------|
D|--7---7---7---7-----------------------------| 2x
A|-------------------7---7---7---7------------|
E|--------------------------------------------|

e|---------------------------------------------------------------|
B|----5---5---5---5---4---4---4---4---0---0---0---0---0---0---0--|
G|----6---6---6---6---4---4---4---4---6---6---6---6---8---8---8--|
D|----6---6---6---6---4---4---4---4---7---7---7---7---9---9---9--|
A|--4---4---4---4------------------------------------------------|
E|------------------4---4---4---4---5---5---5---5---7---7---7---7|

Lees verder… »

Pagina 2 van 1112345...Laatste »