‘Gemiddeld’ Categorie

Pagina 4 van 11« Eerste...23456...Laatste »

Fear of the dark

  

E|---------------------------------|---------------------------------------
B|---------------------------------|---------------5-5---------5-----------
G|-7-----7-7-9-9-10-10-9-9-7-7-9-9-|-5-----5-5-7-7-----7-7-5-5---5---------
D|---7-7---------------------------|---5-5---------------------------------
A|---------------------------------|---------------------------------------
E|---------------------------------|---------------------------------------
(twice)

E|-----------------------------------|-------------------------------------
B|-----------------------------------|-------------------------------------
G|-----------------------------------|-----------------4-4---------4-------
D|-7-7-----7-7-9-9-10-10-9-9-7-7-9-9-|-5-5-----5-5-7-7-----7-7-5-5---5-----
A|-----7-7---------------------------|-----5-5-----------------------------
E|-----------------------------------|-------------------------------------

Lees verder… »


Ayo technology

  

verse & refrein:
e|---7------------5--------------3------------------------|
B|---7------------5--------------3------------------------|
G|---7------------6--------------4------------------------|
D|---9------------7--------------5------------------------|
A|---9------------7--------------5------------------------|
E|---7------------5--------------3------------------------|

na eerste verse:
e|-------------------------------------------------------|
B|-------------------------------------------------------|
G|-------------------------------------------------------|
D|-----7-/-9--------9-9----------------------------------|
A|-----7-/-9----7s9-----9/7------------------------------|
E|-------------------------------------------------------|

Lees verder… »

Zombie

  

Em Cmaj7 
e -0---0---0---0-0---0-0-----0-0---|-0---0---0---0-0---0-0---0-0-0---|
B -0---0---0---0-0---0-0-----0-0---|-0---0---0---0-0---0-0---0-0-0-0-|
G -0---0---0---0-0---0-0-----0-0-0-|-0---0---0---0-0---0-0---0-0-0-0-|
D -2---2---2---2-2---2-2-----2-2-0-|-2---2---2---2-2---2-2---2-2-2-0-|
A -2-------2---2-------2-----2-2-0-|-3-------3-----------3-----------|
E -0-------0---0-------0-----0-0---|---------------------------------|

G6 D6sus
e -0---0---0---0-0---0-0-----0-0---|-0---0---0---0-0---0-0---0-0-0-0-|
B -0---0---0---0-0---0-0-----0-0---|-0---0---0---0-0---0-0---0-0-0-0-|
G -0---0---0---0-0---0-0-----0-0-0-|-0---0---0---0-0---0-0---0-0-0-0-|
D -0---0---0---0-0---0-0-----0-0-0-|-0---0---0---0-0---0-0---0-0-0-0-|
A -2-------2-----------2-------2-0-|-0-------0-----------0---0-0-0-0-|
E -3-------3-----------3-------3---|-2-------2-----------2---2-2-2-2-|

Dust in the wind (intro)

  

C Cmaj7
e|----------------------------------------------------=|
B|--1---------------1--------0---------------0---------|
G|----------0-------------0----------0--------------0--|
D|-------2-------------2----------2--------------2-----|
A|--3-----------3------------3-----------3-------------|
E|-----------------------------------------------------|
Cadd9 C
e|-----------------------------------------------------|
B|--3---------------3--------1---------------1---------|
G|----------0-------------0----------0--------------0--|
D|-------2-------------2----------2--------------2-----|
A|--3-----------3------------3-----------3-------------|
E|-----------------------------------------------------|

Lees verder… »

Wake up (intro)

  

||-----4-4-2-4----4-4-2-0-----4-4-2-4-5--5-2-----||
||---0-----------0-----------0-------------------||
||-----------------------------------------------||
||-----------------------------------------------||
||-----------------------------------------------||
||-0-----------0-----------0------------0--------||
Pagina 4 van 11« Eerste...23456...Laatste »