‘Gemiddeld’ Categorie

Pagina 5 van 11« Eerste...34567...Laatste »

Wake up (intro)

  

||-----4-4-2-4----4-4-2-0-----4-4-2-4-5--5-2-----||
||---0-----------0-----------0-------------------||
||-----------------------------------------------||
||-----------------------------------------------||
||-----------------------------------------------||
||-0-----------0-----------0------------0--------||

Snow

  

e--------------------------------------------------- 
b---------------------------------------------------
g-------4---4--h6----4------------------------------
d----6----6--------6--------------------------------
a-6-------------------------------------------------
e---------------------------------------------------

e---------------------------------------------------
b---------------------------------------------------
g-------4---4--h6----4------------------------------
d----6----6--------6--------------------------------
a-7-------------------------------------------------
e---------------------------------------------------

Lees verder… »

Johnny

  

e |--------------------------------------------------|
B |----------------------------------------------5---|
G |--------------------------------10-9----7-5-7-----|
D |-----7----------5-7-5---------7-----------------7-|
A |--------8-7-----------7----8----------------------|
E |---5----------8-----------------------------------|
1 3 4 3 4 1 3 1 3 2 1 4 3 3 1 3 1 3

e |--------------------------------------------------|
B |--------------------------------------------------|
G |--------------------------------10-9----10-9------|
D |-----7----------5-7-5---------7-------7-----------|
A |--------8-7-----------7---------------------------|
E |---5----------8-----------------------------------|
1 3 4 3 4 1 3 1 3 1 4 3 1 4 3

de cijfers er onder zijn de vingers die je daar moet neer zetten.
1= wijsvinger
2= middelvinger
3= ringvinger
4= pink

Here we go again (intro)

  
F Dm Bb F
e|-1---------------| |-1--3--5--3--1-3-|-6--5--3--1--3-5-|-1-|
B|----1------------| |-----------------|-----------------|---|
G|-------2--0----0-| x2 |-----------------|-----------------|---|
D|-------------3---| |-----------------|-----------------|---|
A|-----------------| |-----------------|-----------------|---|
E|-----------------| |-----------------|-----------------|---|

Verse Riff:
e|---------------------------------|
B|---------------------------------|
G|-----0-----2-----3-----2-----0---|
D|-3-3---3-3---3-3---3-3---3-3---3-| x4
A|---------------------------------|
E|---------------------------------|

Love you more

  
Intro:
e|-------0-------0-------0-------|-----------------------------|
B|---3-------3-------3-------3---|-3p2----------2--------------|
G|-----2-------2-------2---------|-------2-------------2-------|
D|-------------------------------|-----2----2------2-----2-----|
A|-2-----2-------2-------2-------|-0----------0------0-----0---|
E|-------------------------------|-----------------------------|
“Bm7add4” “A”
e|-------0-------0-------0---2---|-----------------------------|
B|---3-------3-------3-----------|-3p2-------------------------|
G|-----2-------2-------2---------|------2-------4-------2------|
D|-------------------------------|----------2-------2-------2--|
A|-2-----2-------2-------2-------|-0--------0-----0-----0------|
E|-------------------------------|-----------------------------|

Lees verder… »

Pagina 5 van 11« Eerste...34567...Laatste »