‘Makkelijk’ Categorie

Pagina 11 van 11« Eerste...7891011

Twinkle twinkle little star | Kinderliedjes

  

 

e----------0-0------------------------------------------------------0-0--|
b------3-3-----3--1-1-0-0--------3-3-1-1-0-0----3-3-1-1-0-0--------3----3|
g--0-0---------------------2-2-0--------------2--------------2-0-0-------|
d------------------------------------------------------------------------|
a------------------------------------------------------------------------|
E------------------------------------------------------------------------|

e---------------------------------|
b-1-1-0-0-------------------------|
g---------2-2-0-------------------|
d---------------------------------|
a---------------------------------|
E---------------------------------|

Are You With Me | Lost Frequencies TAB

  



Tuning: EADGBe

This is played throughout the whole song.

e|-------------------------------------------|
B|--9-9-9-9--/6-6-6-6--/1-1-1-1--\8-8-8-8----|
G|-------------------------------------------| Lees verder... »
Pagina 11 van 11« Eerste...7891011