‘Makkelijk’ Categorie

Pagina 2 van 1112345...Laatste »

Closer | The Chainsmokers TAB

  

[Verse]

e|----------------|------------------|-------------------|-----------|
B|----3-----3-3---|-3-0-0------------|-------------3-3---|-----------|
G|----------------|-------2-2-0------|-------------------|-----------|
D|----------------|------------------|-------------------|-----------|
A|----------------|------------------|-------------------|-----------|
E|----------------|------------------|-------------------|-----------|
      Hey,  I was doing fine before I met you, Drink too 
 Lees verder... »

Thrift shop TAB

  

 

e|---------------------------10-6--------------------------------------------|
B|---------------------88----------8-----------------------------------------|
G|---------7-5---------------------------------------------------------------|
D|--5---55-------------------------------------------------------------------|
A|---------------------------------------------------------------------------|
E|---------------------------------------------------------------------------|

Chorus:
e|-----------------------------------------------------------------------------|
B|-----------------------------------------------------------------------------|
G|---7-77--5--3----------------7-77--5--3---5-5--------------------------------|
D|---------------5--------555--------------------------------------------------|
A|-----------------------------------------------------------------------------|
E|-----------------------------------------------------------------------------|

e|-----------------------------------------------------------------------------|
B|-----------------------------------------------------------------------------|
G|---7-77--5--3------7-77--5--3------7--7--5--3------=-------------------------|
D|-------------------------------------------------5-5-------------------------|
A|-----------------------------------------------------------------------------|
E|-----------------------------------------------------------------------------|
Bridge (ending) chords:
Gm A# C D F

Lego house

  


Intro:
e|-------------------------------------------------------|
B|-------------------------------------------------------|
G|---4--4--4--4--4--4--4--4--4--4--4--4--4--4--3--3------|
D|---4--4--4--4--4--4--4--4--4--4--4--4--4--4--4--4------|
A|-2-----------------------------------------------------|
E|--------------------2-----4------------------0---------| Lees verder... »

Drinking from the bottle

  


Filmpje vanaf 1:10 afspelen

E---8--7--5--5--5--5--7--8--8--8--8--10--12--12--12--12--15--12--10--12--7--|
B---------------------------------------------------------------------------|
G---------------------------------------------------------------------------|
D---------------------------------------------------------------------------|
A---------------------------------------------------------------------------|
E---------------------------------------------------------------------------|

Dit kun je het hele liedje herhalen.

Scream and shout

  


Intro, Prechorus, Chorus, Outro Chords
Gm , Bb, F, C

"Verse" gitaarakkoorden zijn enkele noten.
"Bring the action.
When your hear us in the club .... "

E||-------------------------------|-----------------------|
B||-------------------------------|-----------------------|
G||-------------------------------|-----------------------|
D||--0-----0-----0-----0--2-3-----|---0-------------------|
A||-------------------------------|-----------------------|
E||-------------------------------|-----------------------| Lees verder... »
Pagina 2 van 1112345...Laatste »