‘Makkelijk’ Categorie

Pagina 4 van 11« Eerste...23456...Laatste »

Love me tender

  

  
|------------------------------------------|
|------------------------------------------|
|------------------------------------------|
|--------------7-6-5-3-5-6-----------------|
|------------7-----------------------------|
|-0-5-4-5-7--------------------------------|

|------------------------------------------|
|------------------------------------------|
|------------------------------------------|
|--------------7-6-5-3-5-6-----------------|
|------------7-----------------------------|
|-0-5-4-5-7--------------------------------|

Lees verder… »


Grace Kelly

  

Intro:

e]----------------------3-5-7-8-8-8-8/12-12-12-12-10-10-10-10-8-8-10-7-]B]---------------3-3-3-3-----------------------------------------------]G]--------4-4-4-4------------------------------------------------------]D]-5-5-5-5-------------------------------------------------------------]A]---------------------------------------------------------------------]E]---------------------------------------------------------------------]

I like to move it

  

|-------------------|-------------------|-------------------|-------------------
|-------------------|-------------------|-------------------|-------------------
|-------------------|-------------------|-------------------|-------------------
|--------5-----3--5-|--------5-----3--5-|--------5-----3--5-|--------5-----3--5-
|-3-3-3-3-6-6-5--5--|-3-3-3-3-6-6-5--5--|-3-3-3-3-6-6-5--5--|-3-3-3-3-6-6-5–5––-
|-------------------|-------------------|-------------------|-------------------

-------------------|-------------------|
-------------------|-------------------|
-------------------|-------------------|
-------5-----5-----|--5-----3--5-------|
-3----3-6---5-3----|-3-6-6-5--5--------|
-------------------|-------------------|

Lees verder… »

Alors on dance

  

INTRO/VERSE
1st gitaar:
e|--------------------------------------------------------------------------|
B|--------------------------------------------------------------------------|
G|--------------------------------------------------------------------------|
D|-----6---6-6---2-6-1--1-1-------------------------------------------------|
A|---4----------------------------------------------------------------------|
E|-4------------------------------------------------------------------------|

2nd gitaar (could play these chords):
G#m Em C#m
e|-4-------------0------4---------------------------------------------------|
B|-4-------------0------5---------------------------------------------------|
G|-4-------------0------6---------------------------------------------------|
D|-6-------------2------6---------------------------------------------------|
A|-6-------------2------4---------------------------------------------------|
E|-4-------------0------x---------------------------------------------------|

Lees verder… »

Everybody dance now

  

e|----------------------------------|
B|----------------------------------|
G|--3---3---------------------------|
D|--3---3--3-6------This continues--|
A|--1---1--3-6------Through the song|
E|---------1-4----------------------|
Pagina 4 van 11« Eerste...23456...Laatste »