‘Makkelijk’ Categorie

Pagina 5 van 11« Eerste...34567...Laatste »

Californication

  

------------------------------------------------
-------0--1-------------------------------------
-------------------------------0--2-------------
----2--------2-0-2^0-----------------0----------
--0-------------------3-----3-----------3-------
-------------------------1----------------------

---------------------------------------------
-------0--1----------------------------------
-------------------------------0--2----------
----2--------2-0-2^0-----------------3-0-----
--0-------------------3-----3----------------
-------------------------1-------------------

Lees verder… »


Can’t stop

  

Deze tab is best makkelijk om te spelen. 
Na een aantal keren oefenen heb je het al onder de knie.

<!---------------------------------------------------------------------------
-|---------------------------------------------------------------------------
-|------7--9---------7--9------------7--9---------7--9-----------------------
-|---------------------------------------------------------------------------
-|-7-7--------7-7-7--------7-7-7--5--------5-5-5-------5-5-5-----------------
-|---------------------------------------------------------------------------


-|---------------------------------------------------------------------------
-|---------------------------------------------------------------------------
-|----7--9---------7--9------------7--9--------7--9--------------------------
-|---------------------------------------------------------------------------
-|---------------------------------------------------------------------------
-|-7--------7-7-7--------7-7-7--8-------8-8-8--------8-8-8-------------------

Lost | Anouk

  



e |------------------------------------------------------|
B |-------3------------3------------3------------3-------|
G |-----0---0--------0---0--------2---2--------2---2-----|
D |---0-------0----0-------0----0-------0----0-------0---|
A |------------------------------------------------------|
E |-3------------3------------2------------2-------------|
 
 
e |------------------------------------------------|
B |--------3------------3------------3------3------|
G |------0---0--------0---0--------2---2-----------|
D |----2-------2----2-------2----0-------0---------|
A |--3------------3--------------------------------|
E |----------------------------2-------------------|

Lees verder… »

Let it rock

  
-------------------0-------0---1---------------------1-------1---0---
-------3---3-----------------------------3----3----------3-----------
---2-----------2------2------------2--------------2------------------
---------------------------------------------------------------------
---------------------------------------------------------------------
---------------------------------------------------------------------

------------------0-------0---1-------------------0------------------
------3---3----------------------------3---3----------3--------------
--2-----------2------2------------2------------2---------------------
---------------------------------------------------------------------
---------------------------------------------------------------------
---------------------------------------------------------------------

Lees verder… »

Pirates of the caribbean

  
e-----------------------------------------------------------|
B-----------------------------------------------------------|
G-----------------------------------------------------------|
D-0--0-0--0-0--0-0-0-0-0--0-0--0-0--0-0-0-0-0--0-0--0-0--0-0|
A-----------------------------------------------------------|
E-----------------------------------------------------------|

e-----------------------------------------------------------|
B-----------------------------------------------------------|
G-----------------------0-----------------------------------|
D-----0--0--0-2-3--3--3---2--2--0-----0---------------------|
A-0-3-----------------------------3-3-----------------------|
E-----------------------------------------------------------|

Lees verder… »

Pagina 5 van 11« Eerste...34567...Laatste »