‘Gitaartabs’ Categorie

Pagina 2 van 2412345...Laatste »

Het Wilhelmus (Koningsdag)

  

Leuk voor Koningsdag. Misschien kun je zelfs wat geld verdienen.

|------------------------------------------------------------------------|
|------------------0---1----------0---------0---1---0--------------------|
|------0--0--2---------------2--------2-----------------2---0---2---0----|
|---0--------------------------------------------------------------------|
|------------------------------------------------------------------------|
|------------------------------------------------------------------------|
Wilhelmus van nassauwe, ben ik van duitse bloed
|-------------------------------------------------------------------------|
|-------------------0---1--------0----------0---1---0---------------------|
|------0--0--2---------------2-------2-----------------2---0---2---0------|
|---0---------------------------------------------------------------------|
|-------------------------------------------------------------------------|
|-------------------------------------------------------------------------|

Lees verder… »


Still Got Time | Zayn Malik

  

Riff

e|-1-----------1---------------1---|-------------------------0-------|
B|-------1-----------------x-------|-0-----3-----1-------------------|
G|---------------------------------|---------------------------------|
D|-0-------------------------------|---------------------------------|
A|---------------------------------|-------------0-------------------|
E|---------------------------------|-3-------------------------------|
   1 e + a 2 e + a 3 e + a 4 e + a   1 e + a 2 e + a 3 e + a 4 e + a
         s                 s   s           s                 s
   Dm7                               G           Am7
 Lees verder... »

Alle Eendjes Zwemmen In Het Water | Kinderliedjes

  

F C7 Dm Bb
 F    C       F
Alle eendjes zwemmen in het water Lees verder... »

Darling Tab | Real Estate

  
[Intro]
    F                                         C        G
E|--------------0-----------------------------------------------|
B|--------1--------3---1--0-------------------------------------|
G|-----2-----2-------2-------2--0--------------------0--------0-|
D|--3--------------------------------3--2--0-----2--------0-----|
A|--------------------------------------------3-----------------|
E|-----------------------------------------------------3--------|

Zen Zen Zense | RADWIMPS

  

Capo op 9

[Intro]
e|---------------------14---11----12p11--------------------------------------|
B|----------12----14-----------12-------12-----------------------------------|
G|-------------11----11--11--------------------------------------------------|
D|-9h13p9------------------------------------------------------------------| (x3)
A|---------------------------------------------------------------------------|
E|---------------------------------------------------------------------------|
 Lees verder... »
Pagina 2 van 2412345...Laatste »