‘Gitaartabs’ Categorie

Pagina 2 van 2312345...Laatste »

Alle Eendjes Zwemmen In Het Water | Kinderliedjes

  

F C7 Dm Bb
 F    C       F
Alle eendjes zwemmen in het water Lees verder... »

Darling Tab | Real Estate

  

[Intro]
    F                                         C        G
E|--------------0-----------------------------------------------|
B|--------1--------3---1--0-------------------------------------|
G|-----2-----2-------2-------2--0--------------------0--------0-|
D|--3--------------------------------3--2--0-----2--------0-----|
A|--------------------------------------------3-----------------|
E|-----------------------------------------------------3--------|

Zen Zen Zense | RADWIMPS

  

Capo op 9

[Intro]
e|---------------------14---11----12p11--------------------------------------|
B|----------12----14-----------12-------12-----------------------------------|
G|-------------11----11--11--------------------------------------------------|
D|-9h13p9------------------------------------------------------------------| (x3)
A|---------------------------------------------------------------------------|
E|---------------------------------------------------------------------------|
 Lees verder... »

Dashing Through The Snow TAB + Video

  

e|-----0-------------|---------0------------|-----------1---0------------------|
B|-------3--1--------|-------------3--1-----|-------------------3----0-------0-|
G|---0----------0----|---0--0-------------2-|---2---2--------------------------|
D|-------------------|----------------------|----------------------------------|
A|-------------------|----------------------|----------------------------------|
E|-------------------|----------------------|----------------------------------|

e|--3--3---1---------0--|------------0-------------|---------------0-----------|
B|--------------3-------|---------------3---1------|------------------3---1----|
G|----------------------|---0-----0-------------0--|-----0-----0-------------2-|
D|----------------------|--------------------------|---------------------------|
A|----------------------|--------------------------|---------------------------|
E|----------------------|--------------------------|---------------------------|

e|-----1---0------3--3--3--3--5--3----1------------3-|
B|------------3--------------------------3----1------|
G|-2-------------------------------------------------|
D|---------------------------------------------------|
A|---------------------------------------------------|
E|---------------------------------------------------|

Rudolf The Red Nosed Reindeer TAB

  

|------------------------------------------------------------------------|
|--------1-----------------1-0---------0---------------------------------|
|0-2-0-------2-0-0-2-0-2-0-------0-------2-0---0-2-0-2-0-2---------------|
|------2-----------------------3---3-0---------------------2-------------|
|------------------------------------------------------------------------|
|------------------------------------------------------------------------|
 Lees verder... »
Pagina 2 van 2312345...Laatste »