‘Gitaartabs’ Categorie

Pagina 2 van 2412345...Laatste »

Despacito Tab – Luis Fonsi

  

[Intro]
e|-------2---------2-------2---------2-------------------|
B|---------3---------3--------3---------3----------------|
G|----4---------4--------4---------4---------------------|
D|-------------------------------------------------------|
A|-------------------------------------------------------|
E|-------------------------------------------------------|
 Lees verder... »

One More Love Song Tab | Mac DeMarco

  

Waarschijnlijk gebruikt hij een touch-wah filter/pedaal.

[Intro]
e|---------------------------------------------------------------------------|
B|---------------------------------------------------------------------------|
G|---12--------------9-------------------------------------------------------|
D|------14-12-10-12----10-9---------------------------------------12-10-12-14|
A|--------------------------12-10--------10-12-------10------10--------------|
E|--------------------------------12--12----------12------12-----------------|
 Lees verder... »

Kissing Strangers Tab | Dnce

  

[Main theme]
e|---------------------------------------------------------------------------|
B|---------------------------------------------------------------------------|
G|---------------------------------------------------------------------------|
D|--------3--4--5----------------------1-2-3--1-2-3-0------------------------|
A|-----------------5---3---1-2-3------------------------3-4-5-1--------------|
E|----3--------------------------3---1---------------------------------------|
 Lees verder... »

Beauty And The Beast – Tale As Old As Time Tab

  

Capo op 3

[Verse] 
   G             C               G                   D
e|---------------------------------------------------------------------------|
B|---------------------1-0--------------------------------0---0-1-3----------|
G|------------0-----------2-0---------------------0--2-------2---------------|
D|-----0-4--------------------0-----------0---4------------------------------|
A|-2--------------3--------------------2-------------------------------------|
E|---------------------------------------------------------------------------|
  Tale as old as time    (echo)       True as it can be    (echo)
  Lees verder... »

Het Wilhelmus (Koningsdag)

  

Leuk voor Koningsdag. Misschien kun je zelfs wat geld verdienen.

|------------------------------------------------------------------------|
|------------------0---1----------0---------0---1---0--------------------|
|------0--0--2---------------2--------2-----------------2---0---2---0----|
|---0--------------------------------------------------------------------|
|------------------------------------------------------------------------|
|------------------------------------------------------------------------|
Wilhelmus van nassauwe, ben ik van duitse bloed
|-------------------------------------------------------------------------|
|-------------------0---1--------0----------0---1---0---------------------|
|------0--0--2---------------2-------2-----------------2---0---2---0------|
|---0---------------------------------------------------------------------|
|-------------------------------------------------------------------------|
|-------------------------------------------------------------------------|

Lees verder… »

Pagina 2 van 2412345...Laatste »