‘Gitaartabs’ Categorie

Pagina 23 van 24« Eerste...2021222324

Are You With Me | Lost Frequencies TAB

  



Tuning: EADGBe

This is played throughout the whole song.

e|-------------------------------------------|
B|--9-9-9-9--/6-6-6-6--/1-1-1-1--\8-8-8-8----|
G|-------------------------------------------| Lees verder... »

Problem | Ariana Grande

  


Capo op 4

[Verse 1: Ariana Grande]
C                       D
Hey baby, even though I hate ya  Lees verder... »

Am I Wrong | Nico, Vinz TAB

  



e|----------------------------------------------------------------------------|
B|----------------------------------------------------6-----------------------|
G|------------5--------5-----------------10---------7-------------------------|
D|----------5----------6--------------10----------8---------------------------|
A|--------3----------6--------------8-----------8-----------------------------|
E|-----------------4--------------------------6-------------------------------| Lees verder... »

Addicted to you TAB | Avicii

  

Capo op 4

Intro:
Am
e|-0-0----0---0---0--|
B|-1-1---1----1---1--|
G|------2-----------:|
D|-----2--------2----|
A|-0--------0--------|
E|-------------------| Lees verder... »

Rather be Intro TAB | Clean Bandit ft. Jessy Glynne

  

Deze ziet er moeilijk uit, maar het valt mee.
Het moeilijkste is om te vakjes op te zoeken aangezien de nummers hoger zijn.

TIP: Gebruik de stippen op de zijkant van de hals van je gitaar om makkelijker de vakjes te vinden.
1ste stip = 5de vakje
2de stip = 7de vakje
3de stip = 9de vakje
4de stip = 12de vakje

e|-----------------------------------------------------------------------------|
B|-------------12--14--11------------------------------------------------------|
G|---------13-------------------------------13---------------------------------|
D|-----13-------------------------------13------16--13--16---------------------|
A|-14-------------------------------14-----------------------------------------|
E|------------------------------16---------------------------------------------| Lees verder... »
Pagina 23 van 24« Eerste...2021222324