‘Gitaartabs’ Categorie

Pagina 23 van 24« Eerste...2021222324

Show Me Love | Robin Schulz TAB

  

Intro: 1x

e|---------------------------------------------------------------------------|
B|---------------------------------------------------------------------------|
G|---7---7---7---7---7---7---2---2---4---4---4---4---4---4---2---2-----------|
D|---------------------------------------------------------------------------|
A|---------------------------------------------------------------------------|
E|-7---7---7---7---7---7---2---2---3---3---3---3---3---3---2---2-------------|
 Lees verder... »

Dreaming Of A White Christmas TAB

  

I'm dreaming of a white Christmas 
Just like the ones I used to know 
Where the treetops glisten, 
and children listen 
To hear sleigh bells in the  Lees verder... »

Twinkle twinkle little star | Kinderliedjes

  

 

e----------0-0------------------------------------------------------0-0--|
b------3-3-----3--1-1-0-0--------3-3-1-1-0-0----3-3-1-1-0-0--------3----3|
g--0-0---------------------2-2-0--------------2--------------2-0-0-------|
d------------------------------------------------------------------------|
a------------------------------------------------------------------------|
E------------------------------------------------------------------------|

e---------------------------------|
b-1-1-0-0-------------------------|
g---------2-2-0-------------------|
d---------------------------------|
a---------------------------------|
E---------------------------------|

Are You With Me | Lost Frequencies TAB

  


Tuning: EADGBe

This is played throughout the whole song.

e|-------------------------------------------|
B|--9-9-9-9--/6-6-6-6--/1-1-1-1--\8-8-8-8----|
G|-------------------------------------------| Lees verder... »

Problem | Ariana Grande

  

Capo op 4

[Verse 1: Ariana Grande]
C                       D
Hey baby, even though I hate ya  Lees verder... »
Pagina 23 van 24« Eerste...2021222324