‘Gitaartabs’ Categorie

Pagina 24 van 24« Eerste...2021222324

Here comes the sun TAB | George Harrison

  


Capo op 7

Dit zijn alle delen, de volgorde ervan is een beetje zelf nog te bepalen.
intro/verse gedeelte:
---2-----0--2-----2--0------------0----------------------0----|
---3--3--------3--------3--0--3--(0)--3--0--2--0--2--3--(2)---|
---2-----------------------0-------------0--------------------|
---0-----------------------0-------------2--------------------|
---------------------------2-------------0--------------------|
---------------------------3----------------------------------| Lees verder... »

The monster TAB

  

e|---------------------------------------------------------------------------|
B|---------12-9--------9------------12-9--------9-9--------------------------|
G|-9-11-9-------9-11-9---6---9-11-9------9-11-9------------------------------|
D|---------------------------------------------------------------------------|
A|---------------------------------------------------------------------------|
E|---------------------------------------------------------------------------|
e|---------------------------------------------------------------------------|
B|---------12-9---------9-------------12-9--------12-9-10-10-10-10p9---------|
G|--9-11-9------9-11-9-----6---9-11-9------9-11-9----------------------------|
D|---------------------------------------------------------------------------|
A|---------------------------------------------------------------------------|
E|---------------------------------------------------------------------------|
Pagina 24 van 24« Eerste...2021222324