‘Gitaartabs’ Categorie

Pagina 24 van 24« Eerste...2021222324

The monster TAB

  

e|---------------------------------------------------------------------------|
B|---------12-9--------9------------12-9--------9-9--------------------------|
G|-9-11-9-------9-11-9---6---9-11-9------9-11-9------------------------------|
D|---------------------------------------------------------------------------|
A|---------------------------------------------------------------------------|
E|---------------------------------------------------------------------------|
e|---------------------------------------------------------------------------|
B|---------12-9---------9-------------12-9--------12-9-10-10-10-10p9---------|
G|--9-11-9------9-11-9-----6---9-11-9------9-11-9----------------------------|
D|---------------------------------------------------------------------------|
A|---------------------------------------------------------------------------|
E|---------------------------------------------------------------------------|

Pagina 24 van 24« Eerste...2021222324