‘Gitaartabs’ Categorie

Pagina 4 van 24« Eerste...23456...Laatste »

Thrift shop TAB

  

 

e|---------------------------10-6--------------------------------------------|
B|---------------------88----------8-----------------------------------------|
G|---------7-5---------------------------------------------------------------|
D|--5---55-------------------------------------------------------------------|
A|---------------------------------------------------------------------------|
E|---------------------------------------------------------------------------|

Chorus:
e|-----------------------------------------------------------------------------|
B|-----------------------------------------------------------------------------|
G|---7-77--5--3----------------7-77--5--3---5-5--------------------------------|
D|---------------5--------555--------------------------------------------------|
A|-----------------------------------------------------------------------------|
E|-----------------------------------------------------------------------------|

e|-----------------------------------------------------------------------------|
B|-----------------------------------------------------------------------------|
G|---7-77--5--3------7-77--5--3------7--7--5--3------=-------------------------|
D|-------------------------------------------------5-5-------------------------|
A|-----------------------------------------------------------------------------|
E|-----------------------------------------------------------------------------|
Bridge (ending) chords:
Gm A# C D F

Teenage Dirtbag TAB

  


-|--0--------0-----------0---------0--------
-|--0--------0-----------0---------0--------
-|------------------------------------------ X3
-|------------------------------------------
-|----------------2--2------------------0--0
-|-----0--0-----------------0---0----------- Lees verder... »

Lego house

  


Intro:
e|-------------------------------------------------------|
B|-------------------------------------------------------|
G|---4--4--4--4--4--4--4--4--4--4--4--4--4--4--3--3------|
D|---4--4--4--4--4--4--4--4--4--4--4--4--4--4--4--4------|
A|-2-----------------------------------------------------|
E|--------------------2-----4------------------0---------| Lees verder... »

Beautiful

  

 

Capo op 1

Intro:
E|---3-----3-----3-----3-----3-----3-----3-----3-----3-----3-----3-----3--|
A|---3-----3-----3-----3-----3-----3-----3-----3-----3-----3-----3-----3--|
D|---0-----0-----0-----0-----0-----0-----0-----0-----0-----0-----0-----0--|
G|------------------------------------------------------------------------|
B|------------------------------------2-----2-----3-----3-----3-----3-----|
E|-3----3-----2-----2-----0-----0-----------------------------------------| Lees verder... »

Drinking from the bottle

  


Filmpje vanaf 1:10 afspelen

E---8--7--5--5--5--5--7--8--8--8--8--10--12--12--12--12--15--12--10--12--7--|
B---------------------------------------------------------------------------|
G---------------------------------------------------------------------------|
D---------------------------------------------------------------------------|
A---------------------------------------------------------------------------|
E---------------------------------------------------------------------------|

Dit kun je het hele liedje herhalen.
Pagina 4 van 24« Eerste...23456...Laatste »