‘Gitaartabs’ Categorie

Pagina 4 van 24« Eerste...23456...Laatste »

Rudolf The Red Nosed Reindeer TAB

  

|------------------------------------------------------------------------|
|--------1-----------------1-0---------0---------------------------------|
|0-2-0-------2-0-0-2-0-2-0-------0-------2-0---0-2-0-2-0-2---------------|
|------2-----------------------3---3-0---------------------2-------------|
|------------------------------------------------------------------------|
|------------------------------------------------------------------------|
 Lees verder... »

Closer | The Chainsmokers TAB

  

[Verse]

e|----------------|------------------|-------------------|-----------|
B|----3-----3-3---|-3-0-0------------|-------------3-3---|-----------|
G|----------------|-------2-2-0------|-------------------|-----------|
D|----------------|------------------|-------------------|-----------|
A|----------------|------------------|-------------------|-----------|
E|----------------|------------------|-------------------|-----------|
      Hey,  I was doing fine before I met you, Drink too 
 Lees verder... »

Zombie TAB

  

INTRO:
Het slagje van het intro moet je uitproberen door ernaar te luisteren.
Clean:
e Cmaj7 G D
e-|-0-----0-----3-----2
B-|-0-----0-----0-----3
G-|-0-----0-----0-----2
D-|-2-----2-----0-----0
A-|-2-----3-----2-----0
E-|-0-----------3-----2
D kun je ook als x00232 spelen.
Lees verder... »

Day tripper TAB

  

 

This is the main riff:
e------------------------------
b------------------------------
g------------------------------
d-------------2-0---4----0-2----
a----------2------2----2--------
e--0--3-4-----------------------
 Lees verder... »

Thrift shop TAB

  

 

e|---------------------------10-6--------------------------------------------|
B|---------------------88----------8-----------------------------------------|
G|---------7-5---------------------------------------------------------------|
D|--5---55-------------------------------------------------------------------|
A|---------------------------------------------------------------------------|
E|---------------------------------------------------------------------------|

Chorus:
e|-----------------------------------------------------------------------------|
B|-----------------------------------------------------------------------------|
G|---7-77--5--3----------------7-77--5--3---5-5--------------------------------|
D|---------------5--------555--------------------------------------------------|
A|-----------------------------------------------------------------------------|
E|-----------------------------------------------------------------------------|

e|-----------------------------------------------------------------------------|
B|-----------------------------------------------------------------------------|
G|---7-77--5--3------7-77--5--3------7--7--5--3------=-------------------------|
D|-------------------------------------------------5-5-------------------------|
A|-----------------------------------------------------------------------------|
E|-----------------------------------------------------------------------------|
Bridge (ending) chords:
Gm A# C D F
Pagina 4 van 24« Eerste...23456...Laatste »