‘Gitaartabs’ Categorie

Pagina 5 van 24« Eerste...34567...Laatste »

Teenage Dirtbag TAB

  


-|--0--------0-----------0---------0--------
-|--0--------0-----------0---------0--------
-|------------------------------------------ X3
-|------------------------------------------
-|----------------2--2------------------0--0
-|-----0--0-----------------0---0----------- Lees verder... »

Lego house

  


Intro:
e|-------------------------------------------------------|
B|-------------------------------------------------------|
G|---4--4--4--4--4--4--4--4--4--4--4--4--4--4--3--3------|
D|---4--4--4--4--4--4--4--4--4--4--4--4--4--4--4--4------|
A|-2-----------------------------------------------------|
E|--------------------2-----4------------------0---------| Lees verder... »

Beautiful

  

 

Capo op 1

Intro:
E|---3-----3-----3-----3-----3-----3-----3-----3-----3-----3-----3-----3--|
A|---3-----3-----3-----3-----3-----3-----3-----3-----3-----3-----3-----3--|
D|---0-----0-----0-----0-----0-----0-----0-----0-----0-----0-----0-----0--|
G|------------------------------------------------------------------------|
B|------------------------------------2-----2-----3-----3-----3-----3-----|
E|-3----3-----2-----2-----0-----0-----------------------------------------| Lees verder... »

Drinking from the bottle

  


Filmpje vanaf 1:10 afspelen

E---8--7--5--5--5--5--7--8--8--8--8--10--12--12--12--12--15--12--10--12--7--|
B---------------------------------------------------------------------------|
G---------------------------------------------------------------------------|
D---------------------------------------------------------------------------|
A---------------------------------------------------------------------------|
E---------------------------------------------------------------------------|

Dit kun je het hele liedje herhalen.

Scream and shout

  


Intro, Prechorus, Chorus, Outro Chords
Gm , Bb, F, C

"Verse" gitaarakkoorden zijn enkele noten.
"Bring the action.
When your hear us in the club .... "

E||-------------------------------|-----------------------|
B||-------------------------------|-----------------------|
G||-------------------------------|-----------------------|
D||--0-----0-----0-----0--2-3-----|---0-------------------|
A||-------------------------------|-----------------------|
E||-------------------------------|-----------------------| Lees verder... »
Pagina 5 van 24« Eerste...34567...Laatste »