‘Gitaartabs’ Categorie

Pagina 5 van 24« Eerste...34567...Laatste »

Scream and shout

  


Intro, Prechorus, Chorus, Outro Chords
Gm , Bb, F, C

"Verse" gitaarakkoorden zijn enkele noten.
"Bring the action.
When your hear us in the club .... "

E||-------------------------------|-----------------------|
B||-------------------------------|-----------------------|
G||-------------------------------|-----------------------|
D||--0-----0-----0-----0--2-3-----|---0-------------------|
A||-------------------------------|-----------------------|
E||-------------------------------|-----------------------| Lees verder... »

(Video uitleg) Gitaar oefening / toonladder

  

(Video uitleg) De bleusladder II

  

(Video uitleg) Smells like teen spirit

  

 

When the saints go marching in

  

 

 

just strings 1 and 2, frets 1 and 3, nothing else, and no special method to play it.
e|-----0--1--3-----0--1--3-----0--1--3--0-------0----0--0-----------3-3-3-3-1|
B|---1----------1-----------1----------------1----3--------3--1--1-----------|
G|---------------------------------------------------------------------------|
D|---------------------------------------------------------------------------|
A|---------------------------------------------------------------------------|
E|---------------------------------------------------------------------------|

e|--0---1---3---0-----------------------|
B|-----------------1---3---1------------|
G|--------------------------------------|
D|--------------------------------------|
A|--------------------------------------|
E|--------------------------------------|
Pagina 5 van 24« Eerste...34567...Laatste »