‘Gitaartabs’ Categorie

Pagina 5 van 23« Eerste...34567...Laatste »

(Video uitleg) De bleusladder II

  


(Video uitleg) Smells like teen spirit

  

 

When the saints go marching in

  

 

 

just strings 1 and 2, frets 1 and 3, nothing else, and no special method to play it.
e|-----0--1--3-----0--1--3-----0--1--3--0-------0----0--0-----------3-3-3-3-1|
B|---1----------1-----------1----------------1----3--------3--1--1-----------|
G|---------------------------------------------------------------------------|
D|---------------------------------------------------------------------------|
A|---------------------------------------------------------------------------|
E|---------------------------------------------------------------------------|

e|--0---1---3---0-----------------------|
B|-----------------1---3---1------------|
G|--------------------------------------|
D|--------------------------------------|
A|--------------------------------------|
E|--------------------------------------|

Wake me up when september ends | Green Day

  

C – |x32010| Em – |022000|
Cm – |x35543| Bm – |x24432|
G – |3×0033| D – |xx0232|
G/Gb – |200033|

e| |----0-----0-----| e| |----------------| ||
B| |----1-1---1---1-| B| |----5-----5-----| ||
G| |--0-------0-----| G| |----5-5---5---5-| ||
D| |----------------| D| |--5-------5-----| ||
A| |3-------3-------| A| |3-------3-------| ||
E| |----------------| E| |----------------| ||
 ||
In Verse 1, playing the bar chord version of the ||
C chord makes it much easier to transition to ||
the Cm chord that follows it. ||

Lees verder… »

Tears in heaven

  

 
-Here Is How the Song is Played-
(Intro) \
(Verse) > X2
(Chorus)//
(Before Bridge)
(Bridge)
(Chorus)
(Intro)
(Verse)
(Chorus)
(Outro)
(Intro)

A E/G# F#m A/E
E||-----|-----------------------------|-------------------------|
B||-----|--------2h3p2----5-----5--2--|-------2-----2-----2-----|
G||-----|-----2--------2--4-----4--2--|-------2-----2-----2-----|
D||-----|-----------------------------|-------------------------|
A||-----|--0--------------------------|-------------------------|
E||-0h2-|-----------------4--4-----2--|----2-----2--0--0-----0--|

Lees verder… »

Pagina 5 van 23« Eerste...34567...Laatste »