Daar wordt aan de deur geklopt TAB

  

Daar wordt aan de 
E------------------0----------------
B-------3---------------3-----1-----
G-----------------------------------
D-----------------------------------
A-----------------------------------
E-----------------------------------
deur ge - klopt,
E-----------------------------------
B--0--------------------------------
G------------0---------0------------
D-----------------------------------
A-----------------------------------
E-----------------------------------


 
hard ge - klopt,
E-----------------------------------
B-----------------------------------
G--2--------------------------------
D------------0---------0------------
A-----------------------------------
E-----------------------------------
zacht ge - klopt
E-----------------------------------
B--0--------------------------------
G-----------0---------0-------------
D-----------------------------------
A-----------------------------------
E-----------------------------------

Daar wordt aan de
E------------------0----------------
B-------3---------------3-----1-----
G-----------------------------------
D-----------------------------------
A-----------------------------------
E-----------------------------------
deur ge - klopt,
E-----------------------------------
B--0--------------------------------
G------------0---------0------------
D-----------------------------------
A-----------------------------------
E-----------------------------------
wie zou dat zijn?
E-----------------------------------
B-----------------------------------
G--2---------------------------0----
D------------0---------0------------
A-----------------------------------
E-----------------------------------
Wees maar ge - rust mijn kind,
E-----------------------------------
B-------------------0---------------
G--2----------------------0-----0---
D--------0----0---------------------
A-----------------------------------
E-----------------------------------
ik ben een goe - de vrind. 
E-----------------------------------
B------------------0----------------
G--2----------------------0-----0---
D------0----0-----------------------
A-----------------------------------
E-----------------------------------
Want al ben ik zwart als roet,
E-------0---------------------------
B--3--------3---1---0---------------
G--------------------------0----0---
D-----------------------------------
A-----------------------------------
E-----------------------------------
'kmeen het wel goed.
E-----------------------------------
B-----------------------------------
G----2------------------0-----------
D----------0-----0------------------
A-----------------------------------
E-----------------------------------

Plaats een reactie