Dashing Through The Snow TAB + Video

  

e|-----0-------------|---------0------------|-----------1---0------------------|
B|-------3--1--------|-------------3--1-----|-------------------3----0-------0-|
G|---0----------0----|---0--0-------------2-|---2---2--------------------------|
D|-------------------|----------------------|----------------------------------|
A|-------------------|----------------------|----------------------------------|
E|-------------------|----------------------|----------------------------------|

e|--3--3---1---------0--|------------0-------------|---------------0-----------|
B|--------------3-------|---------------3---1------|------------------3---1----|
G|----------------------|---0-----0-------------0--|-----0-----0-------------2-|
D|----------------------|--------------------------|---------------------------|
A|----------------------|--------------------------|---------------------------|
E|----------------------|--------------------------|---------------------------|

e|-----1---0------3--3--3--3--5--3----1------------3-|
B|------------3--------------------------3----1------|
G|-2-------------------------------------------------|
D|---------------------------------------------------|
A|---------------------------------------------------|
E|---------------------------------------------------|

Plaats een reactie