Day tripper TAB

  

 

This is the main riff:
e------------------------------
b------------------------------
g------------------------------
d-------------2-0---4----0-2----
a----------2------2----2--------
e--0--3-4-----------------------
This is a variation of the verse:
E---------------------------------
B----------------------------------
G-------------2-0----4----0-2-----
D----------2------2----2----------
A--0--3-4-------------------------
E----------------------------------
Chorus:
 F# 
She was a daaa-y tripper, one way ticket yeah!
 A G#
It took me so-o long
 C B 
to find out, and i found out.
Then:
E-------------------------------------------------
B----------------------2--------------------------
G-4-----------4--2-----------2--4-----------------
D-4--0--1--4--------4-----4-----------------------
A-2-----------------------------------------------
E-------------------------------------------------
repeat it 3 times and then
Solo:
E--------------------------5b------------
B--------3------3---5h-7--------7---5----
G-4---4-----4----------------------------
D----------------------------------------
A----------------------------------------
E----------------------------------------
E-----------10-------10---12b14b12---10---------------
B-12~--12~-------12-----------------------12----------
G-----------------------------------------------------
D-----------------------------------------------------
A-----------------------------------------------------
E-----------------------------------------------------
you play a variation in the 3rd verse
e------------------------------
b------------------------------
g------------------------------
d--------------2-0----4----0-2-
a-----------2-------2----2-----
e--0--3h-4---------------------
E------------------------------
B------------------------------
G--------------2-0-----4----0-2
D-----------2-------2-----2----
A--0--3h-4---------------------
E------------------------------
then repeat the main riff and fade out
Tips voor de akkoorden:
F# / G#

Plaats een reactie