De zak van sinterklaas TAB

 
e--------0-2-3-----0-------------0-2-3-------0-----------------------------------
B--3-3-3-------0-0---3-1-0-3-3-3-------0-0-0---3-1-----0-----3-0-0-3-1-1-3---0---
G--------------------------------------------------2-0---2-2---------------2-----
D--------------------------------------------------------------------------------
A--------------------------------------------------------------------------------
E--------------------------------------------------------------------------------


e-------------3-2-2-0-0---------0-2-3-----0-------------0-2-3-------0-------------
B--0----3-0-0-----------3-3-3-3-------0-0---3-1-0-3-3-3-------0-0-0---3-1---------
G---2-2-------------------------------------------------------------------2--0----
D---------------------------------------------------------------------------------
A---------------------------------------------------------------------------------
E---------------------------------------------------------------------------------
Meer leuke liedjes

Laat een reactie achter

Je e-mailadres wordt niet gepubliceerd.