Despacito Tab – Luis Fonsi

  

[Intro]
e|-------2---------2-------2---------2-------------------|
B|---------3---------3--------3---------3----------------|
G|----4---------4--------4---------4---------------------|
D|-------------------------------------------------------|
A|-------------------------------------------------------|
E|-------------------------------------------------------|

e|-------3---------3-------3---------3-------------------|
B|---------3---------3--------3---------3----------------|
G|----4---------4--------4---------4---------------------|
D|-------------------------------------------------------|
A|-------------------------------------------------------|
E|-------------------------------------------------------|

e|-------2---------2-------2---------2-------------0-----|
B|---------3---------3--------3---------3----------2-----|
G|----2---------2--------2---------2---------------2-----|
D|-------------------------------------------------2-----|
A|-------------------------------------------------0-----|
E|-------------------------------------------------x-----|

e|-----2----2-----2------------3----3----3-----------2----2----2------------0-----|
B|-----3-----3-------3---------3-----3------3--------3-----3------3---------2-----|
G|-----4------4---------4------4------4--------4-----2------2--------2------2-----|
D|-----4--------------------------------------------------------------------2-----|
A|--------------------------------------------------------------------------0-----|
E|--------------------------------------------------------------------------x-----|

e|---7--10p-9p-7----7------7---9--10--12--14-----14-----14------------------------|
B|---7-----------11--------7-----------------15~----15~---------------------------|
G|---7---------------------7------------------------------------------------------|
D|---x----------------------------------------------------------------------------|
D|---x----------------------------------------------------------------------------|
E|---x----------------------------------------------------------------------------|

                    Bm                   G                  D                A
e|-------10---9---7-------7---10-9-7-------------10-9-7-9-10------10-9-10-12-9----|
B|-----------------------------------10-8-----------------------------------------|
G|---9\11---9---7---------7-------------------------------------------------------|
A|--------------------------------------------------------------------------------|
A|--------------------------------------------------------------------------------|
E|--------------------------------------------------------------------------------|

                   Bm     
e|-------10---9---7-------|
B|------------------------|
G|---9\11---9---7---------|
A|------------------------|
A|------------------------|
E|------------------------|

Bm 
si, sabes que......

************************************

| x   Dead note
| h   Hammer-on
| p   Pull-off
| r   Release
| /   Slide up
| \   Slide down
| ~   Vibrato

************************************

Plaats een reactie