Alle Eendjes Zwemmen In Het Water | Kinderliedjes

  

F C7 Dm Bb
 F    C       F
Alle eendjes zwemmen in het water
 Dm          Bb     F           C7
Falderal de riere, falderal de rare
 F    C       F
Alle eendjes zwemmen in het water
 Dm     C      F      C      F      C      F
Fal de ral de ral de ral de ral de ral de ra ra ra

================================================================
Gitaar tab versie:

Bb  x13331
C   x32010
C7  x32310
Dm  xx0231
F   133211

    F    C       F                     Dm          Bb    F        C7
Alle eendjes zwemmen in het water  Falderal de riere Falderal de rare
e|--------------------------------------------------------------------------|
B|--------------1---3---1---------------------------------------------------|
G|------0--0---------------3---2--------------------------------------------|
D|-3-3---------------------------3----3--3-3---2--0-----3--3-3---2--0-------|
A|---------------------------------------------------3----------------3-----|
E|--------------------------------------------------------------------------|

    F    C       F                     Dm   C     F     C      F
Alle eendjes zwemmen in het water  Falderal deral deral de ra  ra ra ra
e|--------------------------------------------------------------------------|
B|--------------1---3---1------------------1-----------1--------------------|
G|------0--0---------------3---2---------2-----2-----2-----2----------------|
D|-3-3---------------------------3----3----------3------------3---3--3--3---|
A|--------------------------------------------------------------------------|
E|--------------------------------------------------------------------------|

Plaats een reactie