Give Love A Try Tab

  

INTRO (X betekent dat je op de gitaar snaren slaat met je rechterhand, als je rechtshandig bent)

e------X-----X------X-----X------X-----X------X-----X-|
B------X-----X------X-----X------X-----X------X-----X-|
G----4-X-4h5-X----4-X-4h5-X----4-X-4h5-X----4-X-4h5-X-|
D------X-----X------X-----X------X-----X------X-----X-|
A--3---X-----X--3---X-----X--0---X-----X--0---X-----X-|
E------X-----X------X-----X------X-----X------X-----X-|

e------X-----X------X-----X------X-----X------X-----X-|
B------X-----X------X-----X------X-----X------X-----X-|
G----5-X-5p4-X----2-X-2p0-X----4-X-4h5-X----4-X-4h5-X-|
D------X-----X------X-----X------X-----X------X-----X-|
A------X-----X------X-----X--3---X-----X--3---X-----X-|
E--3---X-----X--1---X-----X------X-----X------X-----X-|

Couplet 1

e------X-----X------X-----X------X-----X------X-----X-|
B------X-----X------X-----X------X-----X------X-----X-|
G----4-X-4h5-X----4-X-4h5-X----4-X-4h5-X----4-X-4h5-X-|
D------X-----X------X-----X------X-----X------X-----X-|
A--3---X-----X--3---X-----X--0---X-----X--0---X-----X-|
E------X-----X------X-----X------X-----X------X-----X-|

e------X-----X------X-----X------X-----X------X-----X-|
B------X-----X------X-----X------X-----X------X-----X-|
G----5-X-5p4-X----2-X-2p0-X----4-X-4h5-X----4-X-4h5-X-|
D------X-----X------X-----X------X-----X------X-----X-|
A------X-----X------X-----X--3---X-----X--3---X-----X-|
E--3---X-----X--1---X-----X------X-----X------X-----X-|

Couplet 2

e------X-----X------X-----X------X-----X------X-----X-|
B------X-----X------X-----X------X-----X------X-----X-|
G----4-X-4h5-X----4-X-4h5-X----4-X-4h5-X----4-X-4h5-X-|
D------X-----X------X-----X------X-----X------X-----X-|
A--3---X-----X--3---X-----X--0---X-----X--0---X-----X-|
E------X-----X------X-----X------X-----X------X-----X-|

e------X-----X------X-----X------X-----X------X-----X-|
B------X-----X------X-----X------X-----X------X-----X-|
G----5-X-5p4-X----2-X-2p0-X----4-X-4h5-X----4-X-4h5-X-|
D------X-----X------X-----X------X-----X------X-----X-|
A------X-----X------X-----X--3---X-----X--3---X-----X-|
E--3---X-----X--1---X-----X------X-----X------X-----X-|

Refrein

e------X-----X------X-----X------X-----X------X-----X-|
B------X--5--X------X-----X------X--3--X------X-----X-|
G----5-X--5--X------X--0--X----3-X--3--X------X-----X-|
D------X-----X----2-X--2--X------X-----X----7-X--7--X-|
A--5---X--5--X--3---X--3--X--3---X--3--X--8---X--8--X-|
E------X-----X------X-----X------X-----X------X-----X-|

e------X-----X------X-----X------X-----X------X-----X-|
B------X--5--X------X-----X------X--3--X------X-----X-|
G----5-X--5--X------X--0--X----3-X--3--X------X-----X-|
D------X-----X----2-X--2--X------X-----X----7-X--7--X-|
A--5---X--5--X--3---X--3--X--3---X--3--X--8---X--8--X-|
E------X-----X------X-----X------X-----X------X-----X-|

e------X-----X------X-----X------X-----X------X-----X-----X-|
B------X-----X------X-----X------X--3--X------X-----X-----X-|
G------X-----X------X--0--X----3-X--3--X------X-----X-----X-|
D----6-X--6--X----2-X--2--X------X-----X----7-X--7--X--6~-X-|
A--8---X--8--X--3---X--3--X--3---X--3--X--8---X--8--X-----X-|
E------X-----X------X-----X------X-----X------X-----X-----X-|


Eindstuk

e------X-----X------X-----X------X-----X------X-----X-|
B------X-----X------X-----X------X-----X------X-----X-|
G----4-X-4h5-X----4-X-4h5-X----4-X-4h5-X----4-X-4h5-X-|
D------X-----X------X-----X------X-----X------X-----X-|
A--3---X-----X--3---X-----X--0---X-----X--0---X-----X-|
E------X-----X------X-----X------X-----X------X-----X-|

e------X-----X------X-----X------X-----X-|
B------X-----X------X-----X------X-----X-|
G----5-X-5p4-X----2-X-2p0-X----4-X-4h5-X-|
D------X-----X------X-----X------X-----X-|
A------X-----X------X-----X--3---X-----X-|
E--3---X-----X--1---X-----X------X-----X-|

Plaats een reactie