Here we go again (intro)

F Dm Bb F
e|-1---------------| |-1--3--5--3--1-3-|-6--5--3--1--3-5-|-1-|
B|----1------------| |-----------------|-----------------|---|
G|-------2--0----0-| x2 |-----------------|-----------------|---|
D|-------------3---| |-----------------|-----------------|---|
A|-----------------| |-----------------|-----------------|---|
E|-----------------| |-----------------|-----------------|---|

Verse Riff:
e|---------------------------------|
B|---------------------------------|
G|-----0-----2-----3-----2-----0---|
D|-3-3---3-3---3-3---3-3---3-3---3-| x4
A|---------------------------------|
E|---------------------------------|
Meer leuke liedjes

Laat een reactie achter

Je e-mailadres wordt niet gepubliceerd.