Hey soul sister

  

Intro:

e|-x-x--x-x-x---3--3-3-3-3-3-3-3--3-3-3-3-3-3-3--3-3-3-3-3-3-3--3-3-3-3-3-3--|
B|-x-x--x-x-x---1--1-1-1-1-1-1-1--1-1-1-1-1-1-0--0-0-0-0-0-0-0--0-0-0-0-0-0--|
G|-x-x--x-x-x---0--0-0-0-0-0-0-0--0-0-0-0-0-0-0--0-0-0-0-0-0-0--0-0-0-0-0-0--|
D|-x-x--x-x-x---x--x-x-x-x-x-x-x--x-x-x-x-x-x-x--x-x-x-x-x-x-x--x-x-x-x-x-x--|
A|-x-x--x-x-x---3--3-3-3-3-3-3-3--3-3-3-3-3-3-3--3-3-3-3-3-3-3--3-3-3-3-3-3--|
E|-x-x--x-x-x----------------------------------------------------------------|

e|-5--5-5-5-5-5-5-5--5-5-5-5-5-5-1--1-1-1-1-1-1-1--1-1-1-1-1-1-1-------------|
B|-6--6-6-6-6-6-6-6--6-6-6-6-6-6-0--0-0-0-0-0-0-0--0-0-0-0-0-0-0-------------|
G|-5--5-5-5-5-5-5-5--5-5-5-5-5-5-0--0-0-0-0-0-0-0--0-0-0-0-0-0-0-------------|
D|-7--7-7-7-7-7-7-7--7-7-7-7-7-7-3--3-3-3-3-3-3-3--3-3-3-3-3-3-3-------------|
A|---------------------------------------------------------------------------|
E|---------------------------------------------------------------------------|

1ST VERSE

e|-3--3-3-3-3-3-3-3--3-3-3-3-3-3-3--3-3-3-3-3-3-3--3-3-3-3-3-3---------------|
B|-1--1-1-1-1-1-1-1--1-1-1-1-1-1-0--0-0-0-0-0-0-0--0-0-0-0-0-0---------------|
G|-0--0-0-0-0-0-0-0--0-0-0-0-0-0-0--0-0-0-0-0-0-0--0-0-0-0-0-0---------------|
D|-x--x-x-x-x-x-x-x--x-x-x-x-x-x-x--x-x-x-x-x-x-x--x-x-x-x-x-x---------------|
A|-3--3-3-3-3-3-3-3--3-3-3-3-3-3-3--3-3-3-3-3-3-3--3-3-3-3-3-3---------------|
E|---------------------------------------------------------------------------|

e|-5--5-5-5-5-5-5-5--5-5-5-5-5-5-1--1-1-1-1-1-1-1--1-1-1-1-1-1-1-------------|
B|-6--6-6-6-6-6-6-6--6-6-6-6-6-6-0--0-0-0-0-0-0-0--0-0-0-0-0-0-0-------------|
G|-5--5-5-5-5-5-5-5--5-5-5-5-5-5-0--0-0-0-0-0-0-0--0-0-0-0-0-0-0-------------|
D|-7--7-7-7-7-7-7-7--7-7-7-7-7-7-3--3-3-3-3-3-3-3--3-3-3-3-3-3-3-------------|
A|---------------------------------------------------------------------------|
E|---------------------------------------------------------------------------|
"and let you blow my mind"
e|-3--3-3-3-3-3-3-3--3-3-3-3-3-3-3--3-3-3-3-3-3-3--3-3-3-3-3-3--5------------|
B|-1--1-1-1-1-1-1-1--1-1-1-1-1-1-0--0-0-0-0-0-0-0--0-0-0-0-0-0--6------------|
G|-0--0-0-0-0-0-0-0--0-0-0-0-0-0-0--0-0-0-0-0-0-0--0-0-0-0-0-0--5------------|
D|-x--x-x-x-x-x-x-x--x-x-x-x-x-x-x--x-x-x-x-x-x-x--x-x-x-x-x-x--7------------|
A|-3--3-3-3-3-3-3-3--3-3-3-3-3-3-3--3-3-3-3-3-3-3--3-3-3-3-3-3---------------|
E|---------------------------------------------------------------------------|


e|-5-5-5-5-5-5-5--5-5-5-5-5-5-1--1-1-1-1-1-1-1--1-1-1-1-1-1-1-3--3-3-3-3-3-3-|
B|-6-6-6-6-6-6-6--6-6-6-6-6-6-0--0-0-0-0-0-0-0--0-0-0-0-0-0-0-0--0-0-0-0-0-0-|
G|-5-5-5-5-5-5-5--5-5-5-5-5-5-0--0-0-0-0-0-0-0--0-0-0-0-0-0-0-0--0-0-0-0-0-0-|
D|-7-7-7-7-7-7-7--7-7-7-7-7-7-3--3-3-3-3-3-3-3--3-3-3-3-3-3-3-5--5-5-5-5-5-5-|
A|---------------------------------------------------------------------------|
E|---------------------------------------------------------------------------|

"Your sweet moving..."
e|-3--3-3-3-3-3-3-3--3-3-3-3-3-3-3--3-3-3-3-3-3-3--3-3-3-3-3-3--5------------|
B|-1--1-1-1-1-1-1-1--1-1-1-1-1-1-0--0-0-0-0-0-0-0--0-0-0-0-0-0--6------------|
G|-0--0-0-0-0-0-0-0--0-0-0-0-0-0-0--0-0-0-0-0-0-0--0-0-0-0-0-0--5------------|
D|-x--x-x-x-x-x-x-x--x-x-x-x-x-x-x--x-x-x-x-x-x-x--x-x-x-x-x-x--7------------|
A|-3--3-3-3-3-3-3-3--3-3-3-3-3-3-3--3-3-3-3-3-3-3--3-3-3-3-3-3---------------|
E|---------------------------------------------------------------------------|

e|-5-5-5-5-5-5-5--5-5-5-5-5-5-1--1-1-1-1-1-1-1--1-1-1-1-1-1-1----------------|
B|-6-6-6-6-6-6-6--6-6-6-6-6-6-0--0-0-0-0-0-0-0--0-0-0-0-0-0-0----------------|
G|-5-5-5-5-5-5-5--5-5-5-5-5-5-0--0-0-0-0-0-0-0--0-0-0-0-0-0-0----------------|
D|-7-7-7-7-7-7-7--7-7-7-7-7-7-3--3-3-3-3-3-3-3--3-3-3-3-3-3-3----------------|
A|---------------------------------------------------------------------------|
E|---------------------------------------------------------------------------|

"one
e|-3--3-3-3-3-3-3-3--3-3-3-3-3-3-3--3-3-3-3-3-3-3--3-3-3-3-3-3--5------------|
B|-1--1-1-1-1-1-1-1--1-1-1-1-1-1-0--0-0-0-0-0-0-0--0-0-0-0-0-0--6------------|
G|-0--0-0-0-0-0-0-0--0-0-0-0-0-0-0--0-0-0-0-0-0-0--0-0-0-0-0-0--5------------|
D|-x--x-x-x-x-x-x-x--x-x-x-x-x-x-x--x-x-x-x-x-x-x--x-x-x-x-x-x--7------------|
A|-3--3-3-3-3-3-3-3--3-3-3-3-3-3-3--3-3-3-3-3-3-3--3-3-3-3-3-3---------------|
E|---------------------------------------------------------------------------|

my kind..."
e|-5-5-5-5-5-5-5--5-5-5-5-5-5-1--1-1-1-1-1-1-1-3--3-3-3-3-3-3----------------|
B|-6-6-6-6-6-6-6--6-6-6-6-6-6-0--0-0-0-0-0-0-0-0--0-0-0-0-0-0----------------|
G|-5-5-5-5-5-5-5--5-5-5-5-5-5-0--0-0-0-0-0-0-0-0--0-0-0-0-0-0----------------|
D|-7-7-7-7-7-7-7--7-7-7-7-7-7-3--3-3-3-3-3-3-3-5--5-5-5-5-5-5----------------|
A|---------------------------------------------------------------------------|
E|---------------------------------------------------------------------------|


CHORUS

e|-1--1-1-1-1-1-1-1--1-1-1-1-1-1-3--3-3-3-3-3-3-5--5-5-3--3-3----------------|
B|-0--0-0-0-0-0-0-0--0-0-0-0-0-0-0--0-0-0-0-0-0-6--6-6-0--0-0----------------|
G|-0--0-0-0-0-0-0-0--0-0-0-0-0-0-0--0-0-0-0-0-0-5--5-5-0--0-0----------------|
D|-3--3-3-3-3-3-3-3--3-3-3-3-3-3-5--5-5-5-5-5-5-7--7-7-5--5-5----------------| x2
A|---------------------------------------------------------------------------|
E|---------------------------------------------------------------------------|

e|-1--1-1-1-1-1-1-1--1-1-1-1-1-1-3--3-3-3-3-3-3-3--3-3-3-3-3-3---------------|
B|-0--0-0-0-0-0-0-0--0-0-0-0-0-0-0--0-0-0-0-0-0-0--0-0-0-0-0-0---------------|
G|-0--0-0-0-0-0-0-0--0-0-0-0-0-0-0--0-0-0-0-0-0-0--0-0-0-0-0-0---------------|
D|-3--3-3-3-3-3-3-3--3-3-3-3-3-3-5--5-5-5-5-5-5-5--5-5-5-5-5-5---------------|
A|---------------------------------------------------------------------------|
E|---------------------------------------------------------------------------|

INTRO
VERSE 2 SAME AS VERSE 1
CHORUS is the same with the addition of an electric gitaar

e|--------------------------|
B|--------------------------|
G|----------9---------------| x2
D|--7---9---9-7-------------|
A|--7---9---7-7-------------|
E|--5---7-----5-------------|

e|--------------------------|
B|--------------------------|
G|----------9---------------|
D|--7---9---9-7--9----------|
A|--7---9---7-7--9----------|
E|--5---7-----5--7----------|

BRIDGE

e|-3--3-3-3-3-3-3-3--3-3-3-3-3-3-3--3-3-3-3-3-3-3--3-3-3-3-3-3---------------|
B|-1--1-1-1-1-1-1-1--1-1-1-1-1-1-0--0-0-0-0-0-0-0--0-0-0-0-0-0---------------|
G|-0--0-0-0-0-0-0-0--0-0-0-0-0-0-0--0-0-0-0-0-0-0--0-0-0-0-0-0---------------|
D|-x--x-x-x-x-x-x-x--x-x-x-x-x-x-x--x-x-x-x-x-x-x--x-x-x-x-x-x---------------|
A|-3--3-3-3-3-3-3-3--3-3-3-3-3-3-3--3-3-3-3-3-3-3--3-3-3-3-3-3---------------|
E|---------------------------------------------------------------------------|

e|-5--5-5-5-5-5-5-5--5-5-5-5-5-5-5--5-5-5-5-5-5-5--5-5-5-5-5-5---------------|
B|-6--6-6-6-6-6-6-6--6-6-6-6-6-6-6--6-6-6-6-6-6-6--6-6-6-6-6-6---------------|
G|-5--5-5-5-5-5-5-5--5-5-5-5-5-5-5--5-5-5-5-5-5-5--5-5-5-5-5-5---------------|
D|-7--7-7-7-7-7-7-7--7-7-7-7-7-7-7--7-7-7-7-7-7-7--7-7-7-7-7-7---------------|
A|---------------------------------------------------------------------------|
E|---------------------------------------------------------------------------|


e|-3--3-3-3-3-3-3-3--3-3-3-3-3-3-3--3-3-3-3-3-3-3--3-3-3-3-3-3---------------|
B|-0--0-0-0-0-0-0-0--0-0-0-0-0-0-0--0-0-0-0-0-0-0--0-0-0-0-0-0---------------|
G|-0--0-0-0-0-0-0-0--0-0-0-0-0-0-0--0-0-0-0-0-0-0--0-0-0-0-0-0---------------|
D|-0--0-0-0-0-0-0-0--0-0-0-0-0-0-0--0-0-0-0-0-0-0--0-0-0-0-0-0---------------|
A|-x--x-x-x-x-x-x-x--x-x-x-x-x-x-x--x-x-x-x-x-x-x--x-x-x-x-x-x---------------|
E|-3--3-3-3-3-3-3-3--3-3-3-3-3-3-3--3-3-3-3-3-3-3--3-3-3-3-3-3---------------|

e|-5--5-5-5-5-5-5-5--5-5-5-5-5-5-5-1--1-1-1-1-1-1-1--3-3-3-3-3-3-3-----------|
B|-6--6-6-6-6-6-6-6--6-6-6-6-6-6-6-0--0-0-0-0-0-0-0--0-0-0-0-0-0-0-----------|
G|-5--5-5-5-5-5-5-5--5-5-5-5-5-5-5-0--0-0-0-0-0-0-0--0-0-0-0-0-0-0-----------|
D|-7--7-7-7-7-7-7-7--7-7-7-7-7-7-7-3--3-3-3-3-3-3-5--5-5-5-5-5-5-5-----------|
A|---------------------------------------------------------------------------|
E|---------------------------------------------------------------------------|

3RD CHORUS CHORDS ARE THE SAME (at the start there's only the acoustic, until the electric
and other instruments join in at "fair you know")

Plaats een reactie