Hoor de wind waait door de bomen TAB

  

Hoor de wind waait door de bomen,
hier in huis daar waait de wind.
Zou de goede Sint wel komen,
nu hij het weer zo lelijk vindt?
Nu hij het weer zo lelijk vindt.
Ja hij komt in donkere nachten,
op zijn paardje o zo snel,
als hij wist hoe zeer wij wachten,
ja gewis dan kwam hij wel,
ja gewis dan kwam hij wel....
e-----------------------0-----------------------
B------0----0-3-0---0-1---3-1-0---0-1-----------
G-------0--0------2-------------2-----2-----0---
D--0-0---0------------------------------2-4-----
A-----------------------------------------------
E----------------------------------speel dit 2 x


 
e--------------0-----------------------------------------0----------------------
B--0-0-0-0-0-0---0-0-----0-----3-----0-------0-3-0---0-1---3-1-0---0-1----------
G--------------------2-0---2-0---------0---0-------2-------------2-----2-----0--
D--------------------------------0-0-----0-------------------------------2-4----
A-------------------------------------------------------------------------------
E-------------------------------------------------------------------------------

Plaats een reactie