Hoor wie klopt daar kinderen TAB

  

e--------0---------------0--------------------------0----------------|
B----------1-1-1-----------1-1-1-------3-2-3-2-3-----1---------------| Dit 2x
G--0-0------------0-0-------------0-0----------------------0-0-------|
D--------------------------------------------------------------------|
A--------------------------------------------------------------------|
E--------------------------------------------------------------------|
e---------1-1-1-0------0---------------0--------------1-1-0----0--------0------------|
B--1---------------1--------3-2-3-2-3---1--------------------1---3-2-3----1----------|
G-----2--------------0--------------------2---0-0-2----------------------------------|
D------------------------------------------------------------------------------------|
A------------------------------------------------------------------------------------|
E------------------------------------------ en dit herhaal je 2 x in zijn totaal-----|


 
Hoor de wind waait door de bomen,
hier in huis daar waait de wind.
Zou de goede Sint wel komen, nu hij het Hoor wie klopt daar kind'ren,
Hoor wie klopt daar kind'ren.
Hoor wie tikt daar zachtjes tegen 't raam.
't Is een vreemd'ling zeker,
die verdwaalt is zeker.
'k Zal eens even vragen naar zijn naam:
Sint Nicolaas, Sint Nicolaas
brengt ons vanavond een bezoek
en strooit dan wat lekkers
in d' één of andere hoek.
Stoute kind'ren, zegt hij, 
krijgen knorren, zegt hij,
of een zakje, zegt hij, met wat zout.
Want je weet wel, zegt hij
dat Sint Nicolaas, zegt hij
van die stoute kind'ren heel niet houdt.
Sint Nicolaas, Sint Nicolaas
brengt ons vanavond een bezoek
en strooit dan wat lekkers
in d' één of andere hoek.
 

1 Reactie op “Hoor wie klopt daar kinderen TAB”

  • Herrie Zoeker:

    Volgens mij klopt hij niet.
    Ik weet er niet veel van maar het lijkt mij dat het in G staat.
    Ik kan in de toonladder van G geen C# en F vinden.

Plaats een reactie