Lego house

  


Intro:
e|-------------------------------------------------------|
B|-------------------------------------------------------|
G|---4--4--4--4--4--4--4--4--4--4--4--4--4--4--3--3------|
D|---4--4--4--4--4--4--4--4--4--4--4--4--4--4--4--4------|
A|-2-----------------------------------------------------|
E|--------------------2-----4------------------0---------|
Verse:
e|-------------------------------------------------------|
B|-------------------------------------------------------|
G|---4--4--4--4--4--4--4--4--4--4--4--4--4--4--4--4------|
D|---4--4--4--4--4--4--4--4--4--4--4--4--4--4--4--4------|
A|-2-----------------------------------------------------|
E|--------------------2-----4-----------4-------0--------|
Chorus/pre-chorus:
e|---------------------------------------------------------------------------|
B|---------------------------------------------------------------------------|
G|---4--4--4--4--4--4--4--4--4--4--4--4--4--4--4--4--4--4--4--4--4--4--4-----|
D|---4--4--4--4--4--4--4--4--4--4--4--4--4--4--4--4--4--4--4--4--4--4--4-----|
A|-2------------------4--------------------------2---------------------------|
E|--------------------------4---------------------------2--------------------|
e|-------------------------------------|
B|-------------------------------------|
G|---4--4--4--4--4--4--4--4--4--4------|
D|---4--4--4--4--4--4--4--4--4--4------|
A|-------------------------------------|
E|-4-----0------------------2----------|
Bridge:
e|-----------------------------------------------------------------------------|
B|-----------------------------------------------------------------------------|
G|---4--4--4--4--4--4--4--4--4--4--4--4--4--4--4--4--4--4--4--4--4--4--4--4----|
D|---4--4--4--4--4--4--4--4--4--4--4--4--4--4--4--4--4--4--4--4--4--4--4--4----|
A|-----------------------------------------------------------------------------|
E|-4-----------2------------0------------------------2-------------------------|
e|------------------------------|
B|------------------------------|
G|--4--4--4--4--4--4--4--4------|
D|--4--4--4--4--4--4--4--4------|
A|------------------------------|
E|-0-----------2----------------|
Intro [x2]Verse [x6]Chorus [x2]Intro [x1]Verse [x4]Chorus [x2]Bridge [x1]Verse (base notes only) [x1]Verse [x1]Chorus (strumming) [x1]

2 Reacties op “Lego house”

Plaats een reactie