Love you more

  

Intro:
e|-------0-------0-------0-------|-----------------------------|
B|---3-------3-------3-------3---|-3p2----------2--------------|
G|-----2-------2-------2---------|-------2-------------2-------|
D|-------------------------------|-----2----2------2-----2-----|
A|-2-----2-------2-------2-------|-0----------0------0-----0---|
E|-------------------------------|-----------------------------|
“Bm7add4” “A”
e|-------0-------0-------0---2---|-----------------------------|
B|---3-------3-------3-----------|-3p2-------------------------|
G|-----2-------2-------2---------|------2-------4-------2------|
D|-------------------------------|----------2-------2-------2--|
A|-2-----2-------2-------2-------|-0--------0-----0-----0------|
E|-------------------------------|-----------------------------|

Couplet:
“Bm7add4” “A”
e|-------0-------0-------0-------|-----------------------------|
B|---3-------3-------3-------3---|-3p2-----------2-------------|
G|-----2-------2-------2---------|-------2----------2-------2--|
D|-------------------------------|-----------2-----------2-----|
A|-2-----2-------2-------2-------|-0---------0------0----0-----|
E|-------------------------------|-----------------------------|
“Bm7add4” “A”
e|-------0-------0-------0---2---|-----------------------------|
B|---3-------3-------3-----------|-3p2-------------------------|
G|-----2-------2-------2---------|------2-------4-------2------|
D|-------------------------------|----------2-------2-------2--|
A|-2-----2-------2-------2-------|-0--------0-----0-----0------|
E|-------------------------------|-----------------------------|
“Bm7add4” “A”
e|-------0-------0-------0-------|-----------------------------|
B|---3-------3-------3-------3---|-3p2-----------2-------------|
G|-----2-------2-------2---------|-------2----------2-------2--|
D|-------------------------------|-----------2-----------2-----|
A|-2-----2-------2-------2-------|-0---------0------0----0-----|
E|-------------------------------|-----------------------------|
“Bm7add4” “A”
e|-------0-------0-------0---2---|----------------------5------|
B|---3-------3-------3-----------|-3p2----------5-----------5--|
G|-----2-------2-------2---------|------2-----------2----------|
D|-------------------------------|----------2------------------|
A|-2-----2-------2-------2-------|-0--------0-----0-----0------|
E|-------------------------------|-----------------------------|

Bm7add4 A
Clouds above go sailing by
Bm7add4 A
I found my meaning in this life
Bm7add4 A
clear white is flying in my eyes,
Bm7add4
underneath a blue, blue sky
A
The waves come rolling in with the tide.

Refrein:
“Em7” “D” “A”
e|---3---3----3p2---------|------------------------------------|
B|---3---3----3----3------|-3p2----------2---------------------|
G|---0---0----2------2----|-------2----------2--------2--------|
D|-2-2-2-2----0-----------|----------2-----------2-------------|
A|-2----------------------|-0--------0-----0-----0-------------|
E|-0----------------------|------------------------------------|
“Em7” “D” “A”
e|---3---3----3p2---------|-------------------------5----------|
B|---3---3----3----3------|-2-------3-------5------------------|
G|---0---0----2------2----|-----2-------2-------2--------------|
D|-2-2-2-2----0-----------|------------------------------------|
A|-2----------------------|-0----------------------------------|
E|-0----------------------|------------------------------------|
“Em7” “D” “A”
e|---3---3----3p2---------|------------------------------------|
B|---3---3----3----3------|-3p2----------2---------------------|
G|---0---0----2------2----|-------2----------2--------2--------|
D|-2-2-2-2----0-----------|----------2-----------2-------------|
A|-2----------------------|-0--------0-----0-----0-------------|
E|-0----------------------|------------------------------------|
“G(5)”: “Dadd9” “A”
e|---3--------------0-------|----------------------------------|
B|---3-----3------3---3-----|-3p2------------------------------|
G|---0----------------------|-------2-----2--------------------|
D|-0-0---0------0-----------|----------2-----------------------|
A|--------------------------|-0--------------------------------|
E|-3------------------------|----------------------------------|

Em7 D A
I've been away too long
Em7 D A
and every day I missed you more.
Em7 D A
You look like you did before

only prettier.
G(5) Dadd9 A
Everyday I love you more.

All the people rushing by, by, by
looking for meaning in this life
so used up, and blinded by lies,
They're underneath the blue, blue sky
the way they seldom seem to smile
I don't know why.

'Cause I've been away too long
and everyday I missed you more.
You look like you did before,
only prettier.
Everyday I love you more.

“Bm7add4” “A”
e|-------0-------0-------0-------|-----------------------------|
B|---3-------3-------3-------3---|-3p2-----------2-------------|
G|-----2-------2-------2---------|-------2----------2-------2--|
D|-------------------------------|-----------2-----------2-----|
A|-2-----2-------2-------2-------|-0---------0------0----0-----|
E|-------------------------------|-----------------------------|
“Bm7add4” “A”
e|-------0-------0-------0---2---|-----------------------------|
B|---3-------3-------3-----------|-3p2-------------------------|
G|-----2-------2-------2---------|------2-------4-------2------|
D|-------------------------------|----------2-------2-------2--|
A|-2-----2-------2-------2-------|-0--------0-----0-----0------|
E|-------------------------------|-----------------------------|

Bm7add4 A
I love you more,
Bm7add4 A
everday I love you more,and more.

Solo:
“Bm7add4” “A”
e|-------0-------0-------0-------|-----------------------------|
B|---3-------3-------3-------3---|-3p2-----------2-------------|
G|-----2-------2-------2---------|-------2----------2-------2--|
D|-------------------------------|-----------2-----------2-----|
A|-2-----2-------2-------2-------|-0---------0------0----0-----|
E|-------------------------------|-----------------------------|
“Bm7add4” “A”
e|-------0-------0-------0---2---|-----------------------------|
B|---3-------3-------3-----------|-3p2-------------------------|
G|-----2-------2-------2---------|------2-------4-------2------|
D|-------------------------------|----------2-------2-------2--|
A|-2-----2-------2-------2-------|-0--------0-----0-----0------|
E|-------------------------------|-----------------------------|
“Bm7add4” “A”
e|-------0-------0-------0-------|-----------------------------|
B|---3-------3-------3-------3---|-3p2-----------2-------------|
G|-----2-------2-------2---------|-------2----------2-------2--|
D|-------------------------------|-----------2-----------2-----|
A|-2-----2-------2-------2-------|-0---------0------0----0-----|
E|-------------------------------|-----------------------------|
“Bm7add4” “A”
e|-------0-------0-------0---2---|----------------------5------|
B|---3-------3-------3-----------|-3p2----------5-----------5--|
G|-----2-------2-------2---------|------2-----------2----------|
D|-------------------------------|----------2------------------|
A|-2-----2-------2-------2-------|-0--------0-----0-----0------|
E|-------------------------------|-----------------------------|

Alt. Refrein:
“Em7” “D” “A”
e|---3---3----3p2---------|------------------------------------|
B|---3---3----3----3------|-3p2----------2---------------------|
G|---0---0----2------2----|-------2----------2--------2--------|
D|-2-2-2-2----0-----------|----------2-----------2-------------|
A|-2----------------------|-0--------0-----0-----0-------------|
E|-0----------------------|------------------------------------|
“Em7” “D” “A”
e|---3---3----3p2---------|-------------------------5----------|
B|---3---3----3----3------|-2-------3-------5------------------|
G|---0---0----2------2----|-----2-------2-------2--------------|
D|-2-2-2-2----0-----------|------------------------------------|
A|-2----------------------|-0----------------------------------|
E|-0----------------------|------------------------------------|

e|---3---3----3p2---------|------------------------------------|
B|---3---3----3----3------|-3p2----------2---------------------|
G|---0---0----2------2----|-------2----------2--------2--------|
D|-2-2-2-2----0-----------|----------2-----------2-------------|
A|-2----------------------|-0--------0-----0-----0-------------|
E|-0----------------------|------------------------------------|

e|---3---3----3p2---------|------------------------------------|
B|---3---3----3----3------|-3-----3-----3-----3----------------|
G|---0---0----2------2----|----2-----2-----2-----2-------------|
D|-2-2-2-2----0-----------|------------------------------------|
A|-2----------------------|-0----------------------------------|
E|-0----------------------|------------------------------------|

Em7 D A
Cause I've been away too long
Em7 D A
and every day I missed you more.
Em7 D A
You look like you did before

only prettier.
Em7 D A
And every day I missed you more,

and more and more and more

Refrein:
“Em7” “D” “A”
e|---3---3----3p2---------|------------------------------------|
B|---3---3----3----3------|-3p2----------2---------------------|
G|---0---0----2------2----|-------2----------2--------2--------|
D|-2-2-2-2----0-----------|----------2-----------2-------------|
A|-2----------------------|-0--------0-----0-----0-------------|
E|-0----------------------|------------------------------------|
“Em7” “D” “A”
e|---3---3----3p2---------|-------------------------5----------|
B|---3---3----3----3------|-2-------3-------5------------------|
G|---0---0----2------2----|-----2-------2-------2--------------|
D|-2-2-2-2----0-----------|------------------------------------|
A|-2----------------------|-0----------------------------------|
E|-0----------------------|------------------------------------|
“Em7” “D” “A”
e|---3---3----3p2---------|------------------------------------|
B|---3---3----3----3------|-3p2----------2---------------------|
G|---0---0----2------2----|-------2----------2--------2--------|
D|-2-2-2-2----0-----------|----------2-----------2-------------|
A|-2----------------------|-0--------0-----0-----0-------------|
E|-0----------------------|------------------------------------|
“G(5)”: “Dadd9” “A”
e|---3--------------0-------|----------------------------------|
B|---3-----3------3---3-----|-3p2------------------------------|
G|---0----------------------|-------2-----2--------------------|
D|-0-0---0------0-----------|----------2-----------------------|
A|--------------------------|-0--------------------------------|
E|-3------------------------|----------------------------------|

Em7 D A
And More...I've been away too long
Em7 D A
and every day I missed you more.
Em7 D A
You look like you did before

only prettier.
G(5) Dadd9 A
Everyday I love you more.

Outro:
“Bm7add4” “A”
e|-------0-------0-------0-------|-----------------------------|
B|---3-------3-------3-------3---|-3p2-----------2-------------|
G|-----2-------2-------2---------|-------2----------2-------2--|
D|-------------------------------|-----------2-----------2-----|
A|-2-----2-------2-------2-------|-0---------0------0----0-----|
E|-------------------------------|-----------------------------|
“Bm7add4” “A”
e|-------0-------0-------0---2---|-----------------------------|
B|---3-------3-------3-----------|-3p2-------------------------|
G|-----2-------2-------2---------|-----------------------------|
D|-------------------------------|-----------------------------|
A|-2-----2-------2-------2-------|-0---------------------------|
E|-------------------------------|-----------------------------|

Bm7add4 A
I love you more,
Bm7add4 A
everday I love you more,and more.

Plaats een reactie