My Love | Route 94

  



Capo op 3

(Intro: geen akkoorden)

My love and my touch,
Up above, made with the warmth of my
My love and my touch,
Up above, made with the warmth of my 

   F           G     Am                Dm                F           C
e|-1-----------3---|-0---------0-0---|-1-----------1---|-1-----------0---|
B|-1-----------0---|-1---------1-1---|-3-----------3---|-1-----------1---|
G|-2-----------0---|-2---------2-2---|-2-----------2---|-2-----------0---|
D|-3-----------0---|-2---------2-2---|-0-----------0---|-3-----------2---|
A|-3-----------2---|-0---------0-0---|-x-----------x---|-3-----------3---|
E|-1-----------3---|-x---------x-x---|-x-----------x---|-1-----------x---|

My love and my touch,
Up above, made with the warmth of my
My love and my touch,
Up above, made with the warmth of my
My love and my touch,
Up above, made with the warmth of my

(Bass only)

e|-----------------|-----------------|-----------------|-----------------|
B|-----------------|-----------------|-----------------|-----------------|
G|-----------------|-----------------|-----------------|-----------------|
D|-----------------|-----------------|-----------------|-----------------|
A|-----------------|-----------------|-5-------------5-|-------------3---|
E|-1-----------3---|-5---------5-5---|-----------------|-1---------------|

Love, stay close to me
Love, stay close, stay close...

Oooh, baby, baby...
Oooh, baby, baby...

   F           G     Am                Dm                F           C
e|-1-----------3---|-0---------0-0---|-1-----------1---|-1-----------0---|
B|-1-----------0---|-1---------1-1---|-3-----------3---|-1-----------1---|
G|-2-----------0---|-2---------2-2---|-2-----------2---|-2-----------0---|
D|-3-----------0---|-2---------2-2---|-0-----------0---|-3-----------2---|
A|-3-----------2---|-0---------0-0---|-x-----------x---|-3-----------3---|
E|-1-----------3---|-x---------x-x---|-x-----------x---|-1-----------x---|

My love and my touch,
Up above, made with the warmth of my
My love and my touch,
Up above, made with the warmth of my
My love and my touch,
Up above, made with the warmth of my
My love and my touch,
Up above, made with the warmth of my

(Bass only)

e|-----------------|-----------------|-----------------|-----------------|
B|-----------------|-----------------|-----------------|-----------------|
G|-----------------|-----------------|-----------------|-----------------|
D|-----------------|-----------------|-----------------|-----------------|
A|-----------------|-----------------|-5-------------5-|-------------3---|
E|-1-----------3---|-5---------5-5---|-----------------|-1---------------|

Love, stay close to me
Love, stay close, stay close...

Oooh, baby, baby...
Oooh, baby, baby...

My love and my touch,
Up above, made with the warmth of my
My love and my touch,
Up above, made with the warmth of my
My love

 


Plaats een reactie