Oh Me | Nirvana

Tuning: 1/2 lager stemmen


INTRO/VERSES:
             E                 D              D
-|--------------0-|----------------|---------------------|
-|--------------0-|--------------3-|--------------3------|
-|--------------1-|--------------2-|--------------2--0-0-|
-|-------2--2-2---|-------2--0-0-0-|-------2--0-0-0--0-0-|
-|---0-2----2-2---|---0-2----0-0---|---0-2----0-0--------|
-|-4--------------|-4--------------|-4-------------------|
   
    C             E
-|------0------|-----0---|-
-|------1--0-0-|-----0---|-
-|------0--0-0-|-----1---|-
-|-2-2---------|--2------|-
-|-3-3---------|--2------|-
-|-------------|--0------|-


VERSE 1 (Use the INTRO/VERSES tab): 
          
if i had to lose a mile, if i had to touch feelings              
i would lose my soul, the way i do
well i dont have to think, I only have to do it
the results are always perfect, and that's old news

would you like to hear my voice
sprinkled/sweetened with emotion
invented...at your birth


CHORUS:
G            E
well i can't see
G          E
the end of me
G        E
my whole expance
G         E
i can not see
              C       D     
i formulate infinite  
                    E
and store it deep inside of me


VERSE 2(Use the INTRO/VERSES tab):

if i had to lose a mile, if i had to touch feelings              
i would lose my soul, the way i do
well i dont have to think, i only have to do it
the results are always perfect, and that's old news

would you like to hear my voice
sprinkled/sweetened with emotion
invented...at your birth


CHORUS 2:
G            E
well i can't see
G          E
the end of me
G        E
my whole expance
G         E
i can not see
              C       D     
i formulate infinite  
                    E
and store it deep inside of me
              C       D     
i formulate infinite  
                    E
and store it deep inside of me
Meer leuke liedjes

Laat een reactie achter

Je e-mailadres wordt niet gepubliceerd.