One More Love Song Tab | Mac DeMarco

  

Waarschijnlijk gebruikt hij een touch-wah filter/pedaal.

[Intro]
e|---------------------------------------------------------------------------|
B|---------------------------------------------------------------------------|
G|---12--------------9-------------------------------------------------------|
D|------14-12-10-12----10-9---------------------------------------12-10-12-14|
A|--------------------------12-10--------10-12-------10------10--------------|
E|--------------------------------12--12----------12------12-----------------|

e|---------------------------------------------------------------------------|
B|---------------------------------------------------------------------------|
G|---12-------------9--------------------------------------------------------|
D|------14-12-10-12---10-9---------------------------9-10-9------------------|
A|-------------------------12-10--------10-12-----10--------10-12------------|
E|-------------------------------12--12--------12----------------------------|


[Even later speelt hij dit riff met zijn lead gitaar]

e|---------------------------------------------------------------------------|
B|---------------------------------------------------------------------------|
G|---12--------------9-------------------------------------------------------|
D|------14-12-10-12----10-9---------------------------------------12-10-12-14|
A|--------------------------12-10--------10-----10------10-12----------------|
E|--------------------------------12--12-----12------12----------------------|

e|---------------------------------------------------------------------------|
B|---------------------------------------------------------------------------|
G|---12-------------9--------------------------------------------------------|
D|------14-12-10-12---10-9---------------------------9-10-9------------------|
A|-------------------------12-10--------10--------10--------10-12------------|
E|-------------------------------12--12--------12----------------------------|

Plaats een reactie